  0
SECTION
  2
HEADER
  9
$EXTMIN
 10
14662.50
 20
17562.50
  9
$EXTMAX
 10
30752.50
 20
28752.50
  9
$LIMMIN
 10
14662.50
 20
17562.50
  9
$LIMMAX
 10
30752.50
 20
28752.50
  0
ENDSEC
  0
SECTION
  2
TABLES
  0
TABLE
  2
LAYER
 70
    18
  0
LAYER
  2
0
 70
    64
 62
     7
  6
CONTINUOUS
  0
LAYER
  2
SHEET
 70
    64
 62
     2
  6
CONTINUOUS
  0
ENDTAB
  0
ENDSEC
  0
SECTION
  2
BLOCKS
  0
BLOCK
  8
0
  2
2
 70
    64
 10
0.00
 20
0.00
  0
LINE
  8
0
 10
-30.00
 20
30.00
 11
30.00
 21
-30.00
  0
LINE
  8
0
 10
-30.00
 20
-30.00
 11
30.00
 21
30.00
  0
ENDBLK
  8
0
  0
BLOCK
  8
0
  2
__JUNCTIONS__
 70
    64
 10
0.00
 20
0.00
  0
POLYLINE
  8
0
 66
     1
 10
0.00
 20
0.00
 70
     1
 40
15.00
 41
15.00
  0
VERTEX
  8
0
 10
-7.50
 20
0.00
 40
15.00
 41
15.00
 42
1.000
  0
VERTEX
  8
0
 10
7.50
 20
0.00
 40
15.00
 41
15.00
 42
1.000
  0
SEQEND
  8
0
  0
ENDBLK
  8
0
  0
BLOCK
  8
0
  2
TERMINAL
 70
    64
 10
0.00
 20
0.00
  0
LINE
  8
0
 10
-30.00
 20
30.00
 11
30.00
 21
-30.00
  0
LINE
  8
0
 10
-30.00
 20
-30.00
 11
30.00
 21
30.00
  0
ENDBLK
  8
0
  0
ENDSEC
  0
SECTION
  2
ENTITIES
  0
TEXT
  8
SHEET
 62
     5
 10
15750.00
 20
26900.00
 40
50.00
  1
Circuit Breaker 5 amps
  0
TEXT
  8
SHEET
 62
     5
 10
16400.00
 20
26400.00
 40
50.00
  1
DPDT ON/OFF SWTICH
  0
TEXT
  8
SHEET
 62
     5
 10
21850.00
 20
19400.00
 40
50.00
  1
Fire Laser
  0
TEXT
  8
SHEET
 62
     5
 10
22000.00
 20
26550.00
 40
50.00
  1
Laser Charge Voltage Set for Flashlamp 1
  0
TEXT
  8
SHEET
 62
     5
 10
22300.00
 20
24350.00
 40
50.00
  1
Laser Charge Voltage Set for Flashlamp 2
  0
TEXT
  8
SHEET
 62
     5
 10
18500.00
 20
20250.00
 40
50.00
  1
Bridge Rectifier
  0
TEXT
  8
SHEET
 62
     5
 10
18500.00
 20
22100.00
 40
50.00
  1
Bridge Rectifier
  0
TEXT
  8
SHEET
 62
     5
 10
18400.00
 20
23950.00
 40
50.00
  1
Voltage Doubler
  0
TEXT
  8
SHEET
 62
     5
 10
18850.00
 20
25950.00
 40
50.00
  1
Voltage Doubler
  0
TEXT
  8
SHEET
 62
     5
 10
17900.00
 20
21150.00
 40
50.00
  1
240VAC
  0
TEXT
  8
SHEET
 62
     5
 10
17850.00
 20
19200.00
 40
50.00
  1
12.6VAC
  0
TEXT
  8
SHEET
 62
     5
 10
17950.00
 20
23100.00
 40
50.00
  1
440VAC
  0
TEXT
  8
SHEET
 62
     5
 10
15100.00
 20
24800.00
 40
50.00
  1
Solid State Relay
  0
TEXT
  8
SHEET
 62
     5
 10
15050.00
 20
23900.00
 40
50.00
  1
Solid State Relay
  0
TEXT
  8
SHEET
 62
     5
 10
15050.00
 20
27150.00
 40
50.00
  1
120VAC 60Hz Single phase
  0
TEXT
  8
SHEET
 62
     5
 10
22100.00
 20
24250.00
 40
50.00
  1
Adjust Charge Voltage
  0
TEXT
  8
SHEET
 62
     5
 10
22000.00
 20
26450.00
 40
50.00
  1
Adjust Charge Voltage
  0
TEXT
  8
SHEET
 62
     5
 10
24000.00
 20
24100.00
 40
50.00
  1
COMPARATOR WITH HYSTERESIS
  0
TEXT
  8
SHEET
 62
     5
 10
24050.00
 20
25900.00
 40
50.00
  1
COMPARATOR WITH HYSTERESIS
  0
TEXT
  8
SHEET
 62
     5
 10
23700.00
 20
21800.00
 40
50.00
  1
External Trigger Circuit
  0
TEXT
  8
SHEET
 62
     5
 10
23600.00
 20
20750.00
 40
50.00
  1
External Trigger Circuit
  0
TEXT
  8
SHEET
 62
     5
 10
18850.00
 20
26100.00
 40
50.00
  1
C5 & C8 Limit Charging Rate Current
  0
TEXT
  8
SHEET
 62
     5
 10
22650.00
 20
24050.00
 40
50.00
  1
VREF
  0
TEXT
  8
SHEET
 62
     5
 10
22600.00
 20
26200.00
 40
50.00
  1
VREF
  0
TEXT
  8
SHEET
 62
     5
 10
22350.00
 20
17900.00
 40
100.00
  1
Holographic Yag Laser
  0
TEXT
  8
SHEET
 62
     5
 10
28000.00
 20
18750.00
 40
100.00
  1
Power Supply,
  0
TEXT
  8
SHEET
 62
     5
 10
25700.00
 20
18250.00
 40
100.00
  1
Surplus Parts Build
  0
TEXT
  8
SHEET
 62
     5
 10
30300.00
 20
17800.00
 40
150.00
  1
1
  0
TEXT
  8
SHEET
 62
     5
 10
30600.00
 20
17800.00
 40
150.00
  1
1
  0
TEXT
  8
SHEET
 62
     5
 10
29300.00
 20
17850.00
 40
150.00
  1
001
  0
TEXT
  8
SHEET
 62
     5
 10
27900.00
 20
18600.00
 40
100.00
  1
Trigger and Control Circuits
  0
TEXT
  8
SHEET
 62
     5
 10
24450.00
 20
25050.00
 40
80.00
  1
9v Setpoint Ref:
  0
TEXT
  8
SHEET
 62
     5
 10
26500.00
 20
25950.00
 40
100.00
  1
0V - 12V output to  Digital voltmeter
  0
TEXT
  8
SHEET
 62
     5
 10
26600.00
 20
25800.00
 40
100.00
  1
3 1/2 digit LED/LCD panel mount type
  0
TEXT
  8
SHEET
 62
     5
 10
23000.00
 20
18400.00
 40
80.00
  1
Based on MOPA Design
  0
TEXT
  8
SHEET
 62
     5
 10
25650.00
 20
21700.00
 40
100.00
  1
OSCILLATOR OF MOPA
  0
TEXT
  8
SHEET
 62
     5
 10
26450.00
 20
20750.00
 40
100.00
  1
AMPLIFIERS OF MOPA
  0
TEXT
  8
SHEET
 62
     5
 10
25700.00
 20
27500.00
 40
100.00
  1
OSCILLATOR
  0
TEXT
  8
SHEET
 62
     5
 10
25900.00
 20
26700.00
 40
100.00
  1
AMPLIFIER
  0
TEXT
  8
SHEET
 62
     5
 10
26650.00
 20
20550.00
 40
100.00
  1
0 - 34J at 60usec max
  0
TEXT
  8
SHEET
 62
     5
 10
25650.00
 20
21550.00
 40
100.00
  1
0 - 20J at 60usec max
  0
TEXT
  8
SHEET
 62
     5
 10
23050.00
 20
18650.00
 40
100.00
  1
RM
  0
TEXT
  8
SHEET
 62
     5
 10
14850.00
 20
18800.00
 40
80.00
  1
Note: If R13, R15, R35, R36 are not HV type rated at 3KV then
  0
TEXT
  8
SHEET
 62
     5
 10
15500.00
 20
18650.00
 40
80.00
  1
a string of 5 of 1/2w or 3 of 2w
  0
TEXT
  8
SHEET
 62
     5
 10
23000.00
 20
19500.00
 40
80.00
  1
50 to 1 Step Up Pulse Transformer
  0
TEXT
  8
SHEET
 62
     5
 10
23550.00
 20
19650.00
 40
80.00
  1
Trigger Transformers
  0
TEXT
  8
SHEET
 62
     5
 10
15550.00
 20
26750.00
 40
80.00
  1
BLK
  0
TEXT
  8
SHEET
 62
     5
 10
15900.00
 20
26200.00
 40
80.00
  1
WHITE
  0
TEXT
  8
SHEET
 62
     5
 10
15900.00
 20
25950.00
 40
80.00
  1
GND
  0
TEXT
  8
SHEET
 62
     5
 10
27750.00
 20
19900.00
 40
80.00
  1
L1, L2,  C7, C9 , C10 Values
  0
TEXT
  8
SHEET
 62
     5
 10
27650.00
 20
19750.00
 40
80.00
  1
for 7mm ID bore and 100mm ArcLen
  0
TEXT
  8
SHEET
 62
     5
 10
28450.00
 20
19600.00
 40
80.00
  1
Zenon Flashlamp
  0
TEXT
  8
SHEET
 62
     5
 10
27900.00
 20
19400.00
 40
80.00
  1
A 4mm bore x 100mm Flashlamp
  0
TEXT
  8
SHEET
 62
     5
 10
28000.00
 20
19250.00
 40
80.00
  1
would be overdamped
  0
TEXT
  8
SHEET
 62
     5
 10
27900.00
 20
19100.00
 40
80.00
  1
Adj L1 and L2 for 4mm lamp
  0
TEXT
  8
SHEET
 62
     5
 10
17850.00
 20
27950.00
 40
80.00
  1
C7, C9, C10  Low inductance type Oil filled
  0
TEXT
  8
SHEET
 62
     5
 10
26250.00
 20
21400.00
 40
80.00
  1
typical 10J value
  0
TEXT
  8
SHEET
 62
     5
 10
26400.00
 20
20350.00
 40
80.00
  1
typical 20 to 34 J value
  0
TEXT
  8
SHEET
 62
     5
 10
23200.00
 20
18300.00
 40
80.00
  1
2 rod amplifier
  0
TEXT
  8
SHEET
 62
     5
 10
23200.00
 20
18200.00
 40
80.00
  1
two lamp design
  0
TEXT
  8
SHEET
 62
     5
 10
25850.00
 20
17900.00
 40
100.00
  1
Version 2 Design
  0
TEXT
  8
SHEET
 62
     5
 10
17950.00
 20
25100.00
 40
50.00
  1
440VAC
  0
TEXT
  8
SHEET
 62
     5
 10
17900.00
 20
27450.00
 40
80.00
  1
Limit Peak Voltage is 1200vdc or less
  0
TEXT
  8
SHEET
 62
     5
 10
17900.00
 20
27350.00
 40
80.00
  1
if a 1200vdc Storage Capacitor is used
  0
TEXT
  8
SHEET
 62
     5
 10
17850.00
 20
27250.00
 40
80.00
  1
Choose a higher rated voltage capacitor
  0
TEXT
  8
SHEET
 62
     5
 10
17850.00
 20
27150.00
 40
80.00
  1
or do not exceed 440VAC charging Transformer
  0
TEXT
  8
SHEET
 62
     5
 10
26700.00
 20
26100.00
 40
80.00
  1
C+C model PM-1029B LED, PM-1029A LCD
  0
TEXT
  8
SHEET
 62
     5
 10
28850.00
 20
28200.00
 40
80.00
  1
Monitored Voltage
  0
TEXT
  8
SHEET
 62
     5
 10
29100.00
 20
27400.00
 40
80.00
  1
Setpoint Voltage
  0
TEXT
  8
SHEET
 62
     5
 10
26750.00
 20
25450.00
 40
80.00
  1
Set Meter to read 1000 for 10volts
  0
TEXT
  8
SHEET
 62
     5
 10
26700.00
 20
25600.00
 40
80.00
  1
Meter must be designed for common gnd
  0
TEXT
  8
SHEET
 62
     5
 10
22050.00
 20
26200.00
 40
80.00
  1
12V
  0
TEXT
  8
SHEET
 62
     5
 10
22050.00
 20
24050.00
 40
80.00
  1
12V
  0
TEXT
  8
SHEET
 62
     5
 10
23700.00
 20
24200.00
 40
80.00
  1
15V
  0
TEXT
  8
SHEET
 62
     5
 10
27400.00
 20
27350.00
 40
80.00
  1
5V
  0
TEXT
  8
SHEET
 62
     5
 10
24450.00
 20
25150.00
 40
80.00
  1
Comparator response
  0
TEXT
  8
SHEET
 62
     5
 10
17850.00
 20
27850.00
 40
80.00
  1
Capacitor Should be a Pulse/Discharge type
  0
TEXT
  8
SHEET
 62
     5
 10
17850.00
 20
27750.00
 40
80.00
  1
Alternate is a SCR commutation type
  0
TEXT
  8
SHEET
 62
     5
 10
17800.00
 20
27650.00
 40
80.00
  1
 with Dv/Dt 10,000+
  0
TEXT
  8
SHEET
 62
     5
 10
26050.00
 20
21300.00
 40
80.00
  1
Damping factor 0.94 at 5J, 0.71 at 15J
  0
TEXT
  8
SHEET
 62
     5
 10
26400.00
 20
20250.00
 40
80.00
  1
Damping factor 0.98 at 20J, 0.88 at 30J
  0
TEXT
  8
SHEET
 62
     5
 10
27600.00
 20
24200.00
 40
80.00
  1
CHARGING SWITCH
  0
TEXT
  8
SHEET
 62
     5
 10
28450.00
 20
24050.00
 40
80.00
  1
ON
  0
TEXT
  8
SHEET
 62
     5
 10
28450.00
 20
24700.00
 40
80.00
  1
ON
  0
TEXT
  8
SHEET
 62
     5
 10
28400.00
 20
24450.00
 40
80.00
  1
OFF
  0
TEXT
  8
SHEET
 62
     5
 10
28450.00
 20
23800.00
 40
80.00
  1
OFF
  0
TEXT
  8
SHEET
 62
     5
 10
29750.00
 20
28100.00
 40
80.00
  1
OSC
  0
TEXT
  8
SHEET
 62
     5
 10
29900.00
 20
27800.00
 40
80.00
  1
OSC
  0
TEXT
  8
SHEET
 62
     5
 10
29750.00
 20
27950.00
 40
80.00
  1
AMP
  0
TEXT
  8
SHEET
 62
     5
 10
29900.00
 20
27650.00
 40
80.00
  1
AMP
  0
TEXT
  8
SHEET
 62
     5
 10
28200.00
 20
27200.00
 40
80.00
  1
PANEL
  0
TEXT
  8
SHEET
 62
     5
 10
28200.00
 20
27050.00
 40
80.00
  1
VOLT
  0
TEXT
  8
SHEET
 62
     5
 10
26900.00
 20
23350.00
 40
80.00
  1
Prevent/Allow  Charging Of Main Capacitors
  0
TEXT
  8
SHEET
 62
     5
 10
21600.00
 20
21900.00
 40
80.00
  1
SCR/Diode Peak 1usec pulse current 80A
  0
TEXT
  8
SHEET
 62
     5
 10
14750.00
 20
23150.00
 40
80.00
  1
70S2-03-B-25-S
  0
TEXT
  8
SHEET
 62
     5
 10
14750.00
 20
23250.00
 40
80.00
  1
Magnacraft SSR
  0
TEXT
  8
SHEET
 62
     5
 10
15000.00
 20
23000.00
 40
80.00
  1
Leakage 2.2ma @120VAC
  0
TEXT
  8
SHEET
 62
     5
 10
18450.00
 20
22400.00
 40
80.00
  1
Resistor drain in 590 seconds
  0
TEXT
  8
SHEET
 62
     5
 10
18500.00
 20
24200.00
 40
80.00
  1
Resistor drain in 335 seconds
  0
TEXT
  8
SHEET
 62
     5
 10
17850.00
 20
27050.00
 40
80.00
  1
Due to full peak voltage applied to capacitor
  0
TEXT
  8
SHEET
 62
     5
 10
17850.00
 20
26950.00
 40
80.00
  1
during charging periods
  0
TEXT
  8
SHEET
 62
     5
 10
21500.00
 20
28600.00
 40
80.00
  1
R27,R29,R30,R31 are compensation resistors
  0
TEXT
  8
SHEET
 62
     5
 10
21500.00
 20
28500.00
 40
80.00
  1
to correct voltage for proper opamp turnoff at Setpoint
  0
TEXT
  8
SHEET
 62
     5
 10
21500.00
 20
28400.00
 40
80.00
  1
and to indicate actual charge voltage within Setpoint limit
  0
TEXT
  8
SHEET
 62
     5
 10
21550.00
 20
28300.00
 40
80.00
  1
R29,R30 indicate a higher voltage, R27,R31 corrects this
  0
TEXT
  8
SHEET
 62
     5
 10
21500.00
 20
28200.00
 40
80.00
  1
Without these, the opamp would turnoff above the setpoint
  0
TEXT
  8
SHEET
 62
     5
 10
14750.00
 20
22850.00
 40
80.00
  1
Warning the only way to remove this voltage
  0
TEXT
  8
SHEET
 62
     5
 10
14800.00
 20
22700.00
 40
80.00
  1
is for the Power switch to be OFF
  0
TEXT
  8
SHEET
 62
     5
 10
24450.00
 20
24950.00
 40
80.00
  1
Turn off at 890V, Turn on at 854V
  0
TEXT
  8
SHEET
 62
     5
 10
21800.00
 20
22000.00
 40
80.00
  1
D1,D2 NTE5474, NTE5476 5A TO64 case
  0
TEXT
  8
SHEET
 62
     5
 10
17850.00
 20
26300.00
 40
50.00
  1
R35,R36 are safety backup bleeder resistors for discharge
  0
TEXT
  8
SHEET
 62
     5
 10
15150.00
 20
18450.00
 40
80.00
  1
Measure for best precision of voltage divider
  0
TEXT
  8
SHEET
 62
     5
 10
16350.00
 20
18300.00
 40
80.00
  1
R13,R14,R15,R16
  0
TEXT
  8
SHEET
 62
     5
 10
17200.00
 20
26600.00
 40
80.00
  1
ON
  0
TEXT
  8
SHEET
 62
     5
 10
17150.00
 20
26000.00
 40
80.00
  1
ON
  0
TEXT
  8
SHEET
 62
     5
 10
27050.00
 20
27600.00
 40
80.00
  1
heat sink required
  0
TEXT
  8
SHEET
 62
     5
 10
19850.00
 20
20050.00
 40
80.00
  1
heat sink required
  0
TEXT
  8
SHEET
 62
     5
 10
20150.00
 20
21750.00
 40
50.00
  1
R3 Bleeder for C1,C6
  0
TEXT
  8
SHEET
 62
     5
 10
15700.00
 20
22250.00
 40
80.00
  1
Fire Safety Switch
  0
TEXT
  8
SHEET
 62
     5
 10
16000.00
 20
28500.00
 40
80.00
  1
This circuit will charge main caps C7, C9, C10 to 1100volt max
  0
TEXT
  8
SHEET
 62
     5
 10
16000.00
 20
28350.00
 40
80.00
  1
Due to Voltage drop from R13,R14,R15,R16,R35,R36
  0
TEXT
  8
SHEET
 62
     5
 10
27100.00
 20
23100.00
 40
80.00
  1
Can be SPST to allow separate control
  0
TEXT
  8
SHEET
 62
     5
 10
21350.00
 20
21300.00
 40
80.00
  1
maint SW
  0
TEXT
  8
SHEET
 62
     5
 10
21400.00
 20
20400.00
 40
80.00
  1
maint SW
  0
INSERT
  8
SHEET
  2
2
 10
24700.00
 20
20100.00
 50
270.000
  0
TEXT
  8
SHEET
 62
    145
 10
24625.00
 20
20025.00
 40
50.00
  1
1
 72
     2
 11
24675.00
 21
20025.00
  0
POLYLINE
  8
SHEET
 66
     1
 10
0.00
 20
0.00
 40
0.00
 41
0.00
  0
VERTEX
  8
SHEET
 10
24700.00
 20
20100.00
 40
0.00
 41
0.00
  0
VERTEX
  8
SHEET
 10
24700.00
 20
19950.00
 40
0.00
 41
0.00
  0
VERTEX
  8
SHEET
 10
24700.00
 20
19950.00
  0
SEQEND
  8
SHEET
  0
POLYLINE
  8
SHEET
 66
     1
 10
0.00
 20
0.00
 40
0.00
 41
0.00
  0
VERTEX
  8
SHEET
 10
24625.00
 20
19900.00
 40
0.00
 41
0.00
  0
VERTEX
  8
SHEET
 10
24650.00
 20
19950.00
  0
VERTEX
  8
SHEET
 10
24650.00
 20
19950.00
 40
0.00
 41
0.00
  0
VERTEX
  8
SHEET
 10
24750.00
 20
19950.00
  0
VERTEX
  8
SHEET
 10
24750.00
 20
19950.00
 40
0.00
 41
0.00
  0
VERTEX
  8
SHEET
 10
24725.00
 20
19900.00
 40
0.00
 41
0.00
  0
VERTEX
  8
SHEET
 10
24725.00
 20
19900.00
  0
SEQEND
  8
SHEET
  0
POLYLINE
  8
SHEET
 66
     1
 10
0.00
 20
0.00
 40
0.00
 41
0.00
  0
VERTEX
  8
SHEET
 10
24675.00
 20
19950.00
 40
0.00
 41
0.00
  0
VERTEX
  8
SHEET
 10
24650.00
 20
19900.00
 40
0.00
 41
0.00
  0
VERTEX
  8
SHEET
 10
24650.00
 20
19900.00
  0
SEQEND
  8
SHEET
  0
POLYLINE
  8
SHEET
 66
     1
 10
0.00
 20
0.00
 40
0.00
 41
0.00
  0
VERTEX
  8
SHEET
 10
24700.00
 20
19950.00
 40
0.00
 41
0.00
  0
VERTEX
  8
SHEET
 10
24675.00
 20
19900.00
 40
0.00
 41
0.00
  0
VERTEX
  8
SHEET
 10
24675.00
 20
19900.00
  0
SEQEND
  8
SHEET
  0
POLYLINE
  8
SHEET
 66
     1
 10
0.00
 20
0.00
 40
0.00
 41
0.00
  0
VERTEX
  8
SHEET
 10
24725.00
 20
19950.00
 40
0.00
 41
0.00
  0
VERTEX
  8
SHEET
 10
24700.00
 20
19900.00
 40
0.00
 41
0.00
  0
VERTEX
  8
SHEET
 10
24700.00
 20
19900.00
  0
SEQEND
  8
SHEET
  0
TEXT
  8
SHEET
 62
     5
 10
24650.00
 20
19825.00
 40
50.00
  1
TP1
  0
INSERT
  8
SHEET
  2
2
 10
22650.00
 20
21550.00
 50
180.000
  0
TEXT
  8
SHEET
 62
    54
 10
22525.00
 20
21475.00
 40
50.00
  1
A
 50
270.000
 72
     2
 11
22575.00
 21
21475.00
  0
TEXT
  8
SHEET
 62
    145
 10
22625.00
 20
21475.00
 40
50.00
  1
1
 50
270.000
 72
     2
 11
22675.00
 21
21475.00
  0
INSERT
  8
SHEET
  2
2
 10
22650.00
 20
21150.00
 50
180.000
  0
TEXT
  8
SHEET
 62
    54
 10
22575.00
 20
21225.00
 40
50.00
  1
K
 50
270.000
  0
TEXT
  8
SHEET
 62
    145
 10
22675.00
 20
21225.00
 40
50.00
  1
2
 50
270.000
  0
INSERT
  8
SHEET
  2
2
 10
22450.00
 20
21250.00
 50
180.000
  0
TEXT
  8
SHEET
 62
    54
 10
22425.00
 20
21275.00
 40
50.00
  1
G
 50
270.000
 72
     2
 11
22475.00
 21
21275.00
  0
TEXT
  8
SHEET
 62
    145
 10
22475.00
 20
21225.00
 40
50.00
  1
3
 50
270.000
  0
POLYLINE
  8
SHEET
 66
     1
 10
0.00
 20
0.00
 70
     1
 40
0.00
 41
0.00
  0
VERTEX
  8
SHEET
 10
22550.00
 20
21450.00
 40
0.00
 41
0.00
  0
VERTEX
  8
SHEET
 10
22750.00
 20
21450.00
  0
VERTEX
  8
SHEET
 10
22750.00
 20
21450.00
 40
0.00
 41
0.00
  0
VERTEX
  8
SHEET
 10
22650.00
 20
21300.00
  0
VERTEX
  8
SHEET
 10
22650.00
 20
21300.00
 40
0.00
 41
0.00
  0
VERTEX
  8
SHEET
 10
22550.00
 20
21450.00
 40
0.00
 41
0.00
  0
VERTEX
  8
SHEET
 10
22550.00
 20
21450.00
  0
SEQEND
  8
SHEET
  0
POLYLINE
  8
SHEET
 66
     1
 10
0.00
 20
0.00
 40
0.00
 41
0.00
  0
VERTEX
  8
SHEET
 10
22750.00
 20
21300.00
 40
0.00
 41
0.00
  0
VERTEX
  8
SHEET
 10
22550.00
 20
21300.00
 40
0.00
 41
0.00
  0
VERTEX
  8
SHEET
 10
22550.00
 20
21300.00
  0
SEQEND
  8
SHEET
  0
POLYLINE
  8
SHEET
 66
     1
 10
0.00
 20
0.00
 40
0.00
 41
0.00
  0
VERTEX
  8
SHEET
 10
22650.00
 20
21550.00
 40
0.00
 41
0.00
  0
VERTEX
  8
SHEET
 10
22650.00
 20
21450.00
 40
0.00
 41
0.00
  0
VERTEX
  8
SHEET
 10
22650.00
 20
21450.00
  0
SEQEND
  8
SHEET
  0
POLYLINE
  8
SHEET
 66
     1
 10
0.00
 20
0.00
 40
0.00
 41
0.00
  0
VERTEX
  8
SHEET
 10
22650.00
 20
21300.00
 40
0.00
 41
0.00
  0
VERTEX
  8
SHEET
 10
22650.00
 20
21150.00
 40
0.00
 41
0.00
  0
VERTEX
  8
SHEET
 10
22650.00
 20
21150.00
  0
SEQEND
  8
SHEET
  0
POLYLINE
  8
SHEET
 66
     1
 10
0.00
 20
0.00
 40
0.00
 41
0.00
  0
VERTEX
  8
SHEET
 10
22600.00
 20
21300.00
 40
0.00
 41
0.00
  0
VERTEX
  8
SHEET
 10
22550.00
 20
21250.00
  0
VERTEX
  8
SHEET
 10
22550.00
 20
21250.00
 40
0.00
 41
0.00
  0
VERTEX
  8
SHEET
 10
22450.00
 20
21250.00
 40
0.00
 41
0.00
  0
VERTEX
  8
SHEET
 10
22450.00
 20
21250.00
  0
SEQEND
  8
SHEET
  0
TEXT
  8
SHEET
 62
     5
 10
22425.00
 20
21575.00
 40
50.00
  1
D1
 50
270.000
  0
TEXT
  8
SHEET
 62
     5
 10
22365.00
 20
21575.00
 40
50.00
  1
SCR
 50
270.000
  0
INSERT
  8
SHEET
  2
2
 10
22750.00
 20
20550.00
 50
180.000
  0
TEXT
  8
SHEET
 62
    54
 10
22625.00
 20
20475.00
 40
50.00
  1
A
 50
270.000
 72
     2
 11
22675.00
 21
20475.00
  0
TEXT
  8
SHEET
 62
    145
 10
22725.00
 20
20475.00
 40
50.00
  1
1
 50
270.000
 72
     2
 11
22775.00
 21
20475.00
  0
INSERT
  8
SHEET
  2
2
 10
22750.00
 20
20150.00
 50
180.000
  0
TEXT
  8
SHEET
 62
    54
 10
22675.00
 20
20225.00
 40
50.00
  1
K
 50
270.000
  0
TEXT
  8
SHEET
 62
    145
 10
22775.00
 20
20225.00
 40
50.00
  1
2
 50
270.000
  0
INSERT
  8
SHEET
  2
2
 10
22550.00
 20
20250.00
 50
180.000
  0
TEXT
  8
SHEET
 62
    54
 10
22525.00
 20
20275.00
 40
50.00
  1
G
 50
270.000
 72
     2
 11
22575.00
 21
20275.00
  0
TEXT
  8
SHEET
 62
    145
 10
22575.00
 20
20225.00
 40
50.00
  1
3
 50
270.000
  0
POLYLINE
  8
SHEET
 66
     1
 10
0.00
 20
0.00
 70
     1
 40
0.00
 41
0.00
  0
VERTEX
  8
SHEET
 10
22650.00
 20
20450.00
 40
0.00
 41
0.00
  0
VERTEX
  8
SHEET
 10
22850.00
 20
20450.00
  0
VERTEX
  8
SHEET
 10
22850.00
 20
20450.00
 40
0.00
 41
0.00
  0
VERTEX
  8
SHEET
 10
22750.00
 20
20300.00
  0
VERTEX
  8
SHEET
 10
22750.00
 20
20300.00
 40
0.00
 41
0.00
  0
VERTEX
  8
SHEET
 10
22650.00
 20
20450.00
 40
0.00
 41
0.00
  0
VERTEX
  8
SHEET
 10
22650.00
 20
20450.00
  0
SEQEND
  8
SHEET
  0
POLYLINE
  8
SHEET
 66
     1
 10
0.00
 20
0.00
 40
0.00
 41
0.00
  0
VERTEX
  8
SHEET
 10
22850.00
 20
20300.00
 40
0.00
 41
0.00
  0
VERTEX
  8
SHEET
 10
22650.00
 20
20300.00
 40
0.00
 41
0.00
  0
VERTEX
  8
SHEET
 10
22650.00
 20
20300.00
  0
SEQEND
  8
SHEET
  0
POLYLINE
  8
SHEET
 66
     1
 10
0.00
 20
0.00
 40
0.00
 41
0.00
  0
VERTEX
  8
SHEET
 10
22750.00
 20
20550.00
 40
0.00
 41
0.00
  0
VERTEX
  8
SHEET
 10
22750.00
 20
20450.00
 40
0.00
 41
0.00
  0
VERTEX
  8
SHEET
 10
22750.00
 20
20450.00
  0
SEQEND
  8
SHEET
  0
POLYLINE
  8
SHEET
 66
     1
 10
0.00
 20
0.00
 40
0.00
 41
0.00
  0
VERTEX
  8
SHEET
 10
22750.00
 20
20300.00
 40
0.00
 41
0.00
  0
VERTEX
  8
SHEET
 10
22750.00
 20
20150.00
 40
0.00
 41
0.00
  0
VERTEX
  8
SHEET
 10
22750.00
 20
20150.00
  0
SEQEND
  8
SHEET
  0
POLYLINE
  8
SHEET
 66
     1
 10
0.00
 20
0.00
 40
0.00
 41
0.00
  0
VERTEX
  8
SHEET
 10
22700.00
 20
20300.00
 40
0.00
 41
0.00
  0
VERTEX
  8
SHEET
 10
22650.00
 20
20250.00
  0
VERTEX
  8
SHEET
 10
22650.00
 20
20250.00
 40
0.00
 41
0.00
  0
VERTEX
  8
SHEET
 10
22550.00
 20
20250.00
 40
0.00
 41
0.00
  0
VERTEX
  8
SHEET
 10
22550.00
 20
20250.00
  0
SEQEND
  8
SHEET
  0
TEXT
  8
SHEET
 62
     5
 10
22525.00
 20
20575.00
 40
50.00
  1
D2
 50
270.000
  0
TEXT
  8
SHEET
 62
     5
 10
22465.00
 20
20575.00
 40
50.00
  1
SCR
 50
270.000
  0
INSERT
  8
SHEET
  2
2
 10
23400.00
 20
24050.00
 50
270.000
  0
TEXT
  8
SHEET
 62
    54
 10
23525.00
 20
24000.00
 40
50.00
  1
IN-
  0
TEXT
  8
SHEET
 62
    145
 10
23425.00
 20
24075.00
 40
50.00
  1
2
 72
     2
 11
23475.00
 21
24075.00
  0
INSERT
  8
SHEET
  2
2
 10
23400.00
 20
23850.00
 50
270.000
  0
TEXT
  8
SHEET
 62
    54
 10
23525.00
 20
23850.00
 40
50.00
  1
IN+
  0
TEXT
  8
SHEET
 62
    145
 10
23425.00
 20
23875.00
 40
50.00
  1
3
 72
     2
 11
23475.00
 21
23875.00
  0
INSERT
  8
SHEET
  2
2
 10
24100.00
 20
23950.00
 50
270.000
  0
TEXT
  8
SHEET
 62
    54
 10
23775.00
 20
23925.00
 40
50.00
  1
OUT
 72
     2
 11
23925.00
 21
23925.00
  0
TEXT
  8
SHEET
 62
    145
 10
24025.00
 20
23975.00
 40
50.00
  1
1
  0
INSERT
  8
SHEET
  2
2
 10
23600.00
 20
24250.00
 50
270.000
  0
TEXT
  8
SHEET
 62
    54
 10
23550.00
 20
24075.00
 40
50.00
  1
V+
 72
     2
 11
23650.00
 21
24075.00
  0
TEXT
  8
SHEET
 62
    145
 10
23625.00
 20
24175.00
 40
50.00
  1
4
  0
INSERT
  8
SHEET
  2
2
 10
23600.00
 20
23650.00
 50
270.000
  0
TEXT
  8
SHEET
 62
    54
 10
23550.00
 20
23775.00
 40
50.00
  1
V-
 72
     2
 11
23650.00
 21
23775.00
  0
TEXT
  8
SHEET
 62
    145
 10
23625.00
 20
23675.00
 40
50.00
  1
11
  0
POLYLINE
  8
SHEET
 66
     1
 10
0.00
 20
0.00
 70
     1
 40
0.00
 41
0.00
  0
VERTEX
  8
SHEET
 10
23500.00
 20
23700.00
 40
0.00
 41
0.00
  0
VERTEX
  8
SHEET
 10
23500.00
 20
24200.00
  0
VERTEX
  8
SHEET
 10
23500.00
 20
24200.00
 40
0.00
 41
0.00
  0
VERTEX
  8
SHEET
 10
24000.00
 20
23950.00
  0
VERTEX
  8
SHEET
 10
24000.00
 20
23950.00
 40
0.00
 41
0.00
  0
VERTEX
  8
SHEET
 10
23500.00
 20
23700.00
 40
0.00
 41
0.00
  0
VERTEX
  8
SHEET
 10
23500.00
 20
23700.00
  0
SEQEND
  8
SHEET
  0
POLYLINE
  8
SHEET
 66
     1
 10
0.00
 20
0.00
 40
0.00
 41
0.00
  0
VERTEX
  8
SHEET
 10
23400.00
 20
24050.00
 40
0.00
 41
0.00
  0
VERTEX
  8
SHEET
 10
23500.00
 20
24050.00
 40
0.00
 41
0.00
  0
VERTEX
  8
SHEET
 10
23500.00
 20
24050.00
  0
SEQEND
  8
SHEET
  0
POLYLINE
  8
SHEET
 66
     1
 10
0.00
 20
0.00
 40
0.00
 41
0.00
  0
VERTEX
  8
SHEET
 10
23400.00
 20
23850.00
 40
0.00
 41
0.00
  0
VERTEX
  8
SHEET
 10
23500.00
 20
23850.00
 40
0.00
 41
0.00
  0
VERTEX
  8
SHEET
 10
23500.00
 20
23850.00
  0
SEQEND
  8
SHEET
  0
POLYLINE
  8
SHEET
 66
     1
 10
0.00
 20
0.00
 40
0.00
 41
0.00
  0
VERTEX
  8
SHEET
 10
24000.00
 20
23950.00
 40
0.00
 41
0.00
  0
VERTEX
  8
SHEET
 10
24100.00
 20
23950.00
 40
0.00
 41
0.00
  0
VERTEX
  8
SHEET
 10
24100.00
 20
23950.00
  0
SEQEND
  8
SHEET
  0
POLYLINE
  8
SHEET
 66
     1
 10
0.00
 20
0.00
 40
0.00
 41
0.00
  0
VERTEX
  8
SHEET
 10
23600.00
 20
24250.00
 40
0.00
 41
0.00
  0
VERTEX
  8
SHEET
 10
23600.00
 20
24150.00
 40
0.00
 41
0.00
  0
VERTEX
  8
SHEET
 10
23600.00
 20
24150.00
  0
SEQEND
  8
SHEET
  0
POLYLINE
  8
SHEET
 66
     1
 10
0.00
 20
0.00
 40
0.00
 41
0.00
  0
VERTEX
  8
SHEET
 10
23600.00
 20
23750.00
 40
0.00
 41
0.00
  0
VERTEX
  8
SHEET
 10
23600.00
 20
23650.00
 40
0.00
 41
0.00
  0
VERTEX
  8
SHEET
 10
23600.00
 20
23650.00
  0
SEQEND
  8
SHEET
  0
TEXT
  8
SHEET
 62
     5
 10
23975.00
 20
23775.00
 40
50.00
  1
U1a
  0
TEXT
  8
SHEET
 62
     5
 10
23975.00
 20
23715.00
 40
50.00
  1
LM324
  0
INSERT
  8
SHEET
  2
2
 10
24550.00
 20
27550.00
 50
270.000
  0
TEXT
  8
SHEET
 62
    54
 10
24675.00
 20
27500.00
 40
50.00
  1
IN-
  0
TEXT
  8
SHEET
 62
    145
 10
24575.00
 20
27575.00
 40
50.00
  1
6
 72
     2
 11
24625.00
 21
27575.00
  0
INSERT
  8
SHEET
  2
2
 10
24550.00
 20
27350.00
 50
270.000
  0
TEXT
  8
SHEET
 62
    54
 10
24675.00
 20
27350.00
 40
50.00
  1
IN+
  0
TEXT
  8
SHEET
 62
    145
 10
24575.00
 20
27375.00
 40
50.00
  1
5
 72
     2
 11
24625.00
 21
27375.00
  0
INSERT
  8
SHEET
  2
2
 10
25250.00
 20
27450.00
 50
270.000
  0
INSERT
  8
SHEET
  2
__JUNCTIONS__
 10
25250.00
 20
27450.00
 50
270.000
  0
TEXT
  8
SHEET
 62
    54
 10
24925.00
 20
27425.00
 40
50.00
  1
OUT
 72
     2
 11
25075.00
 21
27425.00
  0
TEXT
  8
SHEET
 62
    145
 10
25175.00
 20
27475.00
 40
50.00
  1
7
  0
INSERT
  8
SHEET
  2
2
 10
24750.00
 20
27750.00
 50
270.000
  0
TEXT
  8
SHEET
 62
    54
 10
24700.00
 20
27575.00
 40
50.00
  1
V+
 72
     2
 11
24800.00
 21
27575.00
  0
TEXT
  8
SHEET
 62
    145
 10
24775.00
 20
27675.00
 40
50.00
  1
4
  0
INSERT
  8
SHEET
  2
2
 10
24750.00
 20
27150.00
 50
270.000
  0
TEXT
  8
SHEET
 62
    54
 10
24700.00
 20
27275.00
 40
50.00
  1
V-
 72
     2
 11
24800.00
 21
27275.00
  0
TEXT
  8
SHEET
 62
    145
 10
24775.00
 20
27175.00
 40
50.00
  1
11
  0
POLYLINE
  8
SHEET
 66
     1
 10
0.00
 20
0.00
 70
     1
 40
0.00
 41
0.00
  0
VERTEX
  8
SHEET
 10
24650.00
 20
27200.00
 40
0.00
 41
0.00
  0
VERTEX
  8
SHEET
 10
24650.00
 20
27700.00
  0
VERTEX
  8
SHEET
 10
24650.00
 20
27700.00
 40
0.00
 41
0.00
  0
VERTEX
  8
SHEET
 10
25150.00
 20
27450.00
  0
VERTEX
  8
SHEET
 10
25150.00
 20
27450.00
 40
0.00
 41
0.00
  0
VERTEX
  8
SHEET
 10
24650.00
 20
27200.00
 40
0.00
 41
0.00
  0
VERTEX
  8
SHEET
 10
24650.00
 20
27200.00
  0
SEQEND
  8
SHEET
  0
POLYLINE
  8
SHEET
 66
     1
 10
0.00
 20
0.00
 40
0.00
 41
0.00
  0
VERTEX
  8
SHEET
 10
24550.00
 20
27550.00
 40
0.00
 41
0.00
  0
VERTEX
  8
SHEET
 10
24650.00
 20
27550.00
 40
0.00
 41
0.00
  0
VERTEX
  8
SHEET
 10
24650.00
 20
27550.00
  0
SEQEND
  8
SHEET
  0
POLYLINE
  8
SHEET
 66
     1
 10
0.00
 20
0.00
 40
0.00
 41
0.00
  0
VERTEX
  8
SHEET
 10
24550.00
 20
27350.00
 40
0.00
 41
0.00
  0
VERTEX
  8
SHEET
 10
24650.00
 20
27350.00
 40
0.00
 41
0.00
  0
VERTEX
  8
SHEET
 10
24650.00
 20
27350.00
  0
SEQEND
  8
SHEET
  0
POLYLINE
  8
SHEET
 66
     1
 10
0.00
 20
0.00
 40
0.00
 41
0.00
  0
VERTEX
  8
SHEET
 10
25150.00
 20
27450.00
 40
0.00
 41
0.00
  0
VERTEX
  8
SHEET
 10
25250.00
 20
27450.00
 40
0.00
 41
0.00
  0
VERTEX
  8
SHEET
 10
25250.00
 20
27450.00
  0
SEQEND
  8
SHEET
  0
POLYLINE
  8
SHEET
 66
     1
 10
0.00
 20
0.00
 40
0.00
 41
0.00
  0
VERTEX
  8
SHEET
 10
24750.00
 20
27750.00
 40
0.00
 41
0.00
  0
VERTEX
  8
SHEET
 10
24750.00
 20
27650.00
 40
0.00
 41
0.00
  0
VERTEX
  8
SHEET
 10
24750.00
 20
27650.00
  0
SEQEND
  8
SHEET
  0
POLYLINE
  8
SHEET
 66
     1
 10
0.00
 20
0.00
 40
0.00
 41
0.00
  0
VERTEX
  8
SHEET
 10
24750.00
 20
27250.00
 40
0.00
 41
0.00
  0
VERTEX
  8
SHEET
 10
24750.00
 20
27150.00
 40
0.00
 41
0.00
  0
VERTEX
  8
SHEET
 10
24750.00
 20
27150.00
  0
SEQEND
  8
SHEET
  0
TEXT
  8
SHEET
 62
     5
 10
25125.00
 20
27275.00
 40
50.00
  1
U1b
  0
TEXT
  8
SHEET
 62
     5
 10
25125.00
 20
27215.00
 40
50.00
  1
LM324
  0
INSERT
  8
SHEET
  2
2
 10
23550.00
 20
25850.00
 50
270.000
  0
TEXT
  8
SHEET
 62
    54
 10
23675.00
 20
25800.00
 40
50.00
  1
IN-
  0
TEXT
  8
SHEET
 62
    145
 10
23575.00
 20
25875.00
 40
50.00
  1
9
 72
     2
 11
23625.00
 21
25875.00
  0
INSERT
  8
SHEET
  2
2
 10
23550.00
 20
25650.00
 50
270.000
  0
TEXT
  8
SHEET
 62
    54
 10
23675.00
 20
25650.00
 40
50.00
  1
IN+
  0
TEXT
  8
SHEET
 62
    145
 10
23525.00
 20
25675.00
 40
50.00
  1
10
 72
     2
 11
23625.00
 21
25675.00
  0
INSERT
  8
SHEET
  2
2
 10
24250.00
 20
25750.00
 50
270.000
  0
TEXT
  8
SHEET
 62
    54
 10
23925.00
 20
25725.00
 40
50.00
  1
OUT
 72
     2
 11
24075.00
 21
25725.00
  0
TEXT
  8
SHEET
 62
    145
 10
24175.00
 20
25775.00
 40
50.00
  1
8
  0
INSERT
  8
SHEET
  2
2
 10
23750.00
 20
26050.00
 50
270.000
  0
TEXT
  8
SHEET
 62
    54
 10
23700.00
 20
25875.00
 40
50.00
  1
V+
 72
     2
 11
23800.00
 21
25875.00
  0
TEXT
  8
SHEET
 62
    145
 10
23775.00
 20
25975.00
 40
50.00
  1
4
  0
INSERT
  8
SHEET
  2
2
 10
23750.00
 20
25450.00
 50
270.000
  0
TEXT
  8
SHEET
 62
    54
 10
23700.00
 20
25575.00
 40
50.00
  1
V-
 72
     2
 11
23800.00
 21
25575.00
  0
TEXT
  8
SHEET
 62
    145
 10
23775.00
 20
25475.00
 40
50.00
  1
11
  0
POLYLINE
  8
SHEET
 66
     1
 10
0.00
 20
0.00
 70
     1
 40
0.00
 41
0.00
  0
VERTEX
  8
SHEET
 10
23650.00
 20
25500.00
 40
0.00
 41
0.00
  0
VERTEX
  8
SHEET
 10
23650.00
 20
26000.00
  0
VERTEX
  8
SHEET
 10
23650.00
 20
26000.00
 40
0.00
 41
0.00
  0
VERTEX
  8
SHEET
 10
24150.00
 20
25750.00
  0
VERTEX
  8
SHEET
 10
24150.00
 20
25750.00
 40
0.00
 41
0.00
  0
VERTEX
  8
SHEET
 10
23650.00
 20
25500.00
 40
0.00
 41
0.00
  0
VERTEX
  8
SHEET
 10
23650.00
 20
25500.00
  0
SEQEND
  8
SHEET
  0
POLYLINE
  8
SHEET
 66
     1
 10
0.00
 20
0.00
 40
0.00
 41
0.00
  0
VERTEX
  8
SHEET
 10
23550.00
 20
25850.00
 40
0.00
 41
0.00
  0
VERTEX
  8
SHEET
 10
23650.00
 20
25850.00
 40
0.00
 41
0.00
  0
VERTEX
  8
SHEET
 10
23650.00
 20
25850.00
  0
SEQEND
  8
SHEET
  0
POLYLINE
  8
SHEET
 66
     1
 10
0.00
 20
0.00
 40
0.00
 41
0.00
  0
VERTEX
  8
SHEET
 10
23550.00
 20
25650.00
 40
0.00
 41
0.00
  0
VERTEX
  8
SHEET
 10
23650.00
 20
25650.00
 40
0.00
 41
0.00
  0
VERTEX
  8
SHEET
 10
23650.00
 20
25650.00
  0
SEQEND
  8
SHEET
  0
POLYLINE
  8
SHEET
 66
     1
 10
0.00
 20
0.00
 40
0.00
 41
0.00
  0
VERTEX
  8
SHEET
 10
24150.00
 20
25750.00
 40
0.00
 41
0.00
  0
VERTEX
  8
SHEET
 10
24250.00
 20
25750.00
 40
0.00
 41
0.00
  0
VERTEX
  8
SHEET
 10
24250.00
 20
25750.00
  0
SEQEND
  8
SHEET
  0
POLYLINE
  8
SHEET
 66
     1
 10
0.00
 20
0.00
 40
0.00
 41
0.00
  0
VERTEX
  8
SHEET
 10
23750.00
 20
26050.00
 40
0.00
 41
0.00
  0
VERTEX
  8
SHEET
 10
23750.00
 20
25950.00
 40
0.00
 41
0.00
  0
VERTEX
  8
SHEET
 10
23750.00
 20
25950.00
  0
SEQEND
  8
SHEET
  0
POLYLINE
  8
SHEET
 66
     1
 10
0.00
 20
0.00
 40
0.00
 41
0.00
  0
VERTEX
  8
SHEET
 10
23750.00
 20
25550.00
 40
0.00
 41
0.00
  0
VERTEX
  8
SHEET
 10
23750.00
 20
25450.00
 40
0.00
 41
0.00
  0
VERTEX
  8
SHEET
 10
23750.00
 20
25450.00
  0
SEQEND
  8
SHEET
  0
TEXT
  8
SHEET
 62
     5
 10
24050.00
 20
25600.00
 40
50.00
  1
U1c
  0
TEXT
  8
SHEET
 62
     5
 10
24050.00
 20
25540.00
 40
50.00
  1
LM324
  0
INSERT
  8
SHEET
  2
2
 10
24550.00
 20
26700.00
 50
270.000
  0
TEXT
  8
SHEET
 62
    54
 10
24675.00
 20
26650.00
 40
50.00
  1
IN-
  0
TEXT
  8
SHEET
 62
    145
 10
24525.00
 20
26725.00
 40
50.00
  1
13
 72
     2
 11
24625.00
 21
26725.00
  0
INSERT
  8
SHEET
  2
2
 10
24550.00
 20
26500.00
 50
270.000
  0
TEXT
  8
SHEET
 62
    54
 10
24675.00
 20
26500.00
 40
50.00
  1
IN+
  0
TEXT
  8
SHEET
 62
    145
 10
24525.00
 20
26525.00
 40
50.00
  1
12
 72
     2
 11
24625.00
 21
26525.00
  0
INSERT
  8
SHEET
  2
2
 10
25250.00
 20
26600.00
 50
270.000
  0
INSERT
  8
SHEET
  2
__JUNCTIONS__
 10
25250.00
 20
26600.00
 50
270.000
  0
TEXT
  8
SHEET
 62
    54
 10
24925.00
 20
26575.00
 40
50.00
  1
OUT
 72
     2
 11
25075.00
 21
26575.00
  0
TEXT
  8
SHEET
 62
    145
 10
25175.00
 20
26625.00
 40
50.00
  1
14
  0
INSERT
  8
SHEET
  2
2
 10
24750.00
 20
26900.00
 50
270.000
  0
TEXT
  8
SHEET
 62
    54
 10
24700.00
 20
26725.00
 40
50.00
  1
V+
 72
     2
 11
24800.00
 21
26725.00
  0
TEXT
  8
SHEET
 62
    145
 10
24775.00
 20
26825.00
 40
50.00
  1
4
  0
INSERT
  8
SHEET
  2
2
 10
24750.00
 20
26300.00
 50
270.000
  0
TEXT
  8
SHEET
 62
    54
 10
24700.00
 20
26425.00
 40
50.00
  1
V-
 72
     2
 11
24800.00
 21
26425.00
  0
TEXT
  8
SHEET
 62
    145
 10
24775.00
 20
26325.00
 40
50.00
  1
11
  0
POLYLINE
  8
SHEET
 66
     1
 10
0.00
 20
0.00
 70
     1
 40
0.00
 41
0.00
  0
VERTEX
  8
SHEET
 10
24650.00
 20
26350.00
 40
0.00
 41
0.00
  0
VERTEX
  8
SHEET
 10
24650.00
 20
26850.00
  0
VERTEX
  8
SHEET
 10
24650.00
 20
26850.00
 40
0.00
 41
0.00
  0
VERTEX
  8
SHEET
 10
25150.00
 20
26600.00
  0
VERTEX
  8
SHEET
 10
25150.00
 20
26600.00
 40
0.00
 41
0.00
  0
VERTEX
  8
SHEET
 10
24650.00
 20
26350.00
 40
0.00
 41
0.00
  0
VERTEX
  8
SHEET
 10
24650.00
 20
26350.00
  0
SEQEND
  8
SHEET
  0
POLYLINE
  8
SHEET
 66
     1
 10
0.00
 20
0.00
 40
0.00
 41
0.00
  0
VERTEX
  8
SHEET
 10
24550.00
 20
26700.00
 40
0.00
 41
0.00
  0
VERTEX
  8
SHEET
 10
24650.00
 20
26700.00
 40
0.00
 41
0.00
  0
VERTEX
  8
SHEET
 10
24650.00
 20
26700.00
  0
SEQEND
  8
SHEET
  0
POLYLINE
  8
SHEET
 66
     1
 10
0.00
 20
0.00
 40
0.00
 41
0.00
  0
VERTEX
  8
SHEET
 10
24550.00
 20
26500.00
 40
0.00
 41
0.00
  0
VERTEX
  8
SHEET
 10
24650.00
 20
26500.00
 40
0.00
 41
0.00
  0
VERTEX
  8
SHEET
 10
24650.00
 20
26500.00
  0
SEQEND
  8
SHEET
  0
POLYLINE
  8
SHEET
 66
     1
 10
0.00
 20
0.00
 40
0.00
 41
0.00
  0
VERTEX
  8
SHEET
 10
25150.00
 20
26600.00
 40
0.00
 41
0.00
  0
VERTEX
  8
SHEET
 10
25250.00
 20
26600.00
 40
0.00
 41
0.00
  0
VERTEX
  8
SHEET
 10
25250.00
 20
26600.00
  0
SEQEND
  8
SHEET
  0
POLYLINE
  8
SHEET
 66
     1
 10
0.00
 20
0.00
 40
0.00
 41
0.00
  0
VERTEX
  8
SHEET
 10
24750.00
 20
26900.00
 40
0.00
 41
0.00
  0
VERTEX
  8
SHEET
 10
24750.00
 20
26800.00
 40
0.00
 41
0.00
  0
VERTEX
  8
SHEET
 10
24750.00
 20
26800.00
  0
SEQEND
  8
SHEET
  0
POLYLINE
  8
SHEET
 66
     1
 10
0.00
 20
0.00
 40
0.00
 41
0.00
  0
VERTEX
  8
SHEET
 10
24750.00
 20
26400.00
 40
0.00
 41
0.00
  0
VERTEX
  8
SHEET
 10
24750.00
 20
26300.00
 40
0.00
 41
0.00
  0
VERTEX
  8
SHEET
 10
24750.00
 20
26300.00
  0
SEQEND
  8
SHEET
  0
TEXT
  8
SHEET
 62
     5
 10
25125.00
 20
26425.00
 40
50.00
  1
U1d
  0
TEXT
  8
SHEET
 62
     5
 10
25125.00
 20
26365.00
 40
50.00
  1
LM324
  0
INSERT
  8
SHEET
  2
2
 10
17900.00
 20
25750.00
 50
270.000
  0
TEXT
  8
SHEET
 62
    54
 10
17725.00
 20
25675.00
 40
50.00
  1
PRIMS
 72
     2
 11
17975.00
 21
25675.00
  0
TEXT
  8
SHEET
 62
    145
 10
17925.00
 20
25775.00
 40
50.00
  1
1
 72
     2
 11
17975.00
 21
25775.00
  0
INSERT
  8
SHEET
  2
2
 10
17900.00
 20
25350.00
 50
270.000
  0
TEXT
  8
SHEET
 62
    54
 10
17725.00
 20
25275.00
 40
50.00
  1
PRIMF
 72
     2
 11
17975.00
 21
25275.00
  0
TEXT
  8
SHEET
 62
    145
 10
17925.00
 20
25375.00
 40
50.00
  1
2
 72
     2
 11
17975.00
 21
25375.00
  0
INSERT
  8
SHEET
  2
2
 10
18300.00
 20
25750.00
 50
270.000
  0
TEXT
  8
SHEET
 62
    54
 10
18225.00
 20
25675.00
 40
50.00
  1
SECS
  0
TEXT
  8
SHEET
 62
    145
 10
18225.00
 20
25775.00
 40
50.00
  1
4
  0
INSERT
  8
SHEET
  2
2
 10
18300.00
 20
25350.00
 50
270.000
  0
TEXT
  8
SHEET
 62
    54
 10
18225.00
 20
25275.00
 40
50.00
  1
SECF
  0
TEXT
  8
SHEET
 62
    145
 10
18225.00
 20
25375.00
 40
50.00
  1
3
  0
POLYLINE
  8
SHEET
 66
     1
 10
0.00
 20
0.00
 40
0.00
 41
0.00
  0
VERTEX
  8
SHEET
 10
17900.00
 20
25750.00
 40
0.00
 41
0.00
  0
VERTEX
  8
SHEET
 10
18000.00
 20
25750.00
  0
VERTEX
  8
SHEET
 10
18000.00
 20
25750.00
 40
0.00
 41
0.00
 42
-0.414
  0
VERTEX
  8
SHEET
 10
18050.00
 20
25700.00
  0
VERTEX
  8
SHEET
 10
18050.00
 20
25700.00
 40
0.00
 41
0.00
 42
-0.414
  0
VERTEX
  8
SHEET
 10
18000.00
 20
25650.00
  0
VERTEX
  8
SHEET
 10
18000.00
 20
25650.00
 40
0.00
 41
0.00
 42
-0.414
  0
VERTEX
  8
SHEET
 10
18050.00
 20
25600.00
  0
VERTEX
  8
SHEET
 10
18050.00
 20
25600.00
 40
0.00
 41
0.00
 42
-0.414
  0
VERTEX
  8
SHEET
 10
18000.00
 20
25550.00
  0
VERTEX
  8
SHEET
 10
18000.00
 20
25550.00
 40
0.00
 41
0.00
 42
-0.414
  0
VERTEX
  8
SHEET
 10
18050.00
 20
25500.00
  0
VERTEX
  8
SHEET
 10
18050.00
 20
25500.00
 40
0.00
 41
0.00
 42
-0.414
  0
VERTEX
  8
SHEET
 10
18000.00
 20
25450.00
  0
VERTEX
  8
SHEET
 10
18000.00
 20
25450.00
 40
0.00
 41
0.00
 42
-0.414
  0
VERTEX
  8
SHEET
 10
18050.00
 20
25400.00
  0
VERTEX
  8
SHEET
 10
18050.00
 20
25400.00
 40
0.00
 41
0.00
 42
-0.414
  0
VERTEX
  8
SHEET
 10
18000.00
 20
25350.00
  0
VERTEX
  8
SHEET
 10
18000.00
 20
25350.00
 40
0.00
 41
0.00
  0
VERTEX
  8
SHEET
 10
17900.00
 20
25350.00
 40
0.00
 41
0.00
  0
VERTEX
  8
SHEET
 10
17900.00
 20
25350.00
  0
SEQEND
  8
SHEET
  0
POLYLINE
  8
SHEET
 66
     1
 10
0.00
 20
0.00
 40
0.00
 41
0.00
  0
VERTEX
  8
SHEET
 10
18300.00
 20
25750.00
 40
0.00
 41
0.00
  0
VERTEX
  8
SHEET
 10
18200.00
 20
25750.00
  0
VERTEX
  8
SHEET
 10
18200.00
 20
25750.00
 40
0.00
 41
0.00
 42
0.414
  0
VERTEX
  8
SHEET
 10
18150.00
 20
25700.00
  0
VERTEX
  8
SHEET
 10
18150.00
 20
25700.00
 40
0.00
 41
0.00
 42
0.414
  0
VERTEX
  8
SHEET
 10
18200.00
 20
25650.00
  0
VERTEX
  8
SHEET
 10
18200.00
 20
25650.00
 40
0.00
 41
0.00
 42
0.414
  0
VERTEX
  8
SHEET
 10
18150.00
 20
25600.00
  0
VERTEX
  8
SHEET
 10
18150.00
 20
25600.00
 40
0.00
 41
0.00
 42
0.414
  0
VERTEX
  8
SHEET
 10
18200.00
 20
25550.00
  0
VERTEX
  8
SHEET
 10
18200.00
 20
25550.00
 40
0.00
 41
0.00
 42
0.414
  0
VERTEX
  8
SHEET
 10
18150.00
 20
25500.00
  0
VERTEX
  8
SHEET
 10
18150.00
 20
25500.00
 40
0.00
 41
0.00
 42
0.414
  0
VERTEX
  8
SHEET
 10
18200.00
 20
25450.00
  0
VERTEX
  8
SHEET
 10
18200.00
 20
25450.00
 40
0.00
 41
0.00
 42
0.414
  0
VERTEX
  8
SHEET
 10
18150.00
 20
25400.00
  0
VERTEX
  8
SHEET
 10
18150.00
 20
25400.00
 40
0.00
 41
0.00
 42
0.414
  0
VERTEX
  8
SHEET
 10
18200.00
 20
25350.00
  0
VERTEX
  8
SHEET
 10
18200.00
 20
25350.00
 40
0.00
 41
0.00
  0
VERTEX
  8
SHEET
 10
18300.00
 20
25350.00
 40
0.00
 41
0.00
  0
VERTEX
  8
SHEET
 10
18300.00
 20
25350.00
  0
SEQEND
  8
SHEET
  0
TEXT
  8
SHEET
 62
     5
 10
18025.00
 20
25225.00
 40
50.00
  1
T1
  0
INSERT
  8
SHEET
  2
2
 10
17900.00
 20
23750.00
 50
270.000
  0
TEXT
  8
SHEET
 62
    54
 10
17725.00
 20
23675.00
 40
50.00
  1
PRIMS
 72
     2
 11
17975.00
 21
23675.00
  0
TEXT
  8
SHEET
 62
    145
 10
17925.00
 20
23775.00
 40
50.00
  1
1
 72
     2
 11
17975.00
 21
23775.00
  0
INSERT
  8
SHEET
  2
2
 10
17900.00
 20
23350.00
 50
270.000
  0
TEXT
  8
SHEET
 62
    54
 10
17725.00
 20
23275.00
 40
50.00
  1
PRIMF
 72
     2
 11
17975.00
 21
23275.00
  0
TEXT
  8
SHEET
 62
    145
 10
17925.00
 20
23375.00
 40
50.00
  1
2
 72
     2
 11
17975.00
 21
23375.00
  0
INSERT
  8
SHEET
  2
2
 10
18300.00
 20
23750.00
 50
270.000
  0
TEXT
  8
SHEET
 62
    54
 10
18225.00
 20
23675.00
 40
50.00
  1
SECS
  0
TEXT
  8
SHEET
 62
    145
 10
18225.00
 20
23775.00
 40
50.00
  1
4
  0
INSERT
  8
SHEET
  2
2
 10
18300.00
 20
23350.00
 50
270.000
  0
TEXT
  8
SHEET
 62
    54
 10
18225.00
 20
23275.00
 40
50.00
  1
SECF
  0
TEXT
  8
SHEET
 62
    145
 10
18225.00
 20
23375.00
 40
50.00
  1
3
  0
POLYLINE
  8
SHEET
 66
     1
 10
0.00
 20
0.00
 40
0.00
 41
0.00
  0
VERTEX
  8
SHEET
 10
17900.00
 20
23750.00
 40
0.00
 41
0.00
  0
VERTEX
  8
SHEET
 10
18000.00
 20
23750.00
  0
VERTEX
  8
SHEET
 10
18000.00
 20
23750.00
 40
0.00
 41
0.00
 42
-0.414
  0
VERTEX
  8
SHEET
 10
18050.00
 20
23700.00
  0
VERTEX
  8
SHEET
 10
18050.00
 20
23700.00
 40
0.00
 41
0.00
 42
-0.414
  0
VERTEX
  8
SHEET
 10
18000.00
 20
23650.00
  0
VERTEX
  8
SHEET
 10
18000.00
 20
23650.00
 40
0.00
 41
0.00
 42
-0.414
  0
VERTEX
  8
SHEET
 10
18050.00
 20
23600.00
  0
VERTEX
  8
SHEET
 10
18050.00
 20
23600.00
 40
0.00
 41
0.00
 42
-0.414
  0
VERTEX
  8
SHEET
 10
18000.00
 20
23550.00
  0
VERTEX
  8
SHEET
 10
18000.00
 20
23550.00
 40
0.00
 41
0.00
 42
-0.414
  0
VERTEX
  8
SHEET
 10
18050.00
 20
23500.00
  0
VERTEX
  8
SHEET
 10
18050.00
 20
23500.00
 40
0.00
 41
0.00
 42
-0.414
  0
VERTEX
  8
SHEET
 10
18000.00
 20
23450.00
  0
VERTEX
  8
SHEET
 10
18000.00
 20
23450.00
 40
0.00
 41
0.00
 42
-0.414
  0
VERTEX
  8
SHEET
 10
18050.00
 20
23400.00
  0
VERTEX
  8
SHEET
 10
18050.00
 20
23400.00
 40
0.00
 41
0.00
 42
-0.414
  0
VERTEX
  8
SHEET
 10
18000.00
 20
23350.00
  0
VERTEX
  8
SHEET
 10
18000.00
 20
23350.00
 40
0.00
 41
0.00
  0
VERTEX
  8
SHEET
 10
17900.00
 20
23350.00
 40
0.00
 41
0.00
  0
VERTEX
  8
SHEET
 10
17900.00
 20
23350.00
  0
SEQEND
  8
SHEET
  0
POLYLINE
  8
SHEET
 66
     1
 10
0.00
 20
0.00
 40
0.00
 41
0.00
  0
VERTEX
  8
SHEET
 10
18300.00
 20
23750.00
 40
0.00
 41
0.00
  0
VERTEX
  8
SHEET
 10
18200.00
 20
23750.00
  0
VERTEX
  8
SHEET
 10
18200.00
 20
23750.00
 40
0.00
 41
0.00
 42
0.414
  0
VERTEX
  8
SHEET
 10
18150.00
 20
23700.00
  0
VERTEX
  8
SHEET
 10
18150.00
 20
23700.00
 40
0.00
 41
0.00
 42
0.414
  0
VERTEX
  8
SHEET
 10
18200.00
 20
23650.00
  0
VERTEX
  8
SHEET
 10
18200.00
 20
23650.00
 40
0.00
 41
0.00
 42
0.414
  0
VERTEX
  8
SHEET
 10
18150.00
 20
23600.00
  0
VERTEX
  8
SHEET
 10
18150.00
 20
23600.00
 40
0.00
 41
0.00
 42
0.414
  0
VERTEX
  8
SHEET
 10
18200.00
 20
23550.00
  0
VERTEX
  8
SHEET
 10
18200.00
 20
23550.00
 40
0.00
 41
0.00
 42
0.414
  0
VERTEX
  8
SHEET
 10
18150.00
 20
23500.00
  0
VERTEX
  8
SHEET
 10
18150.00
 20
23500.00
 40
0.00
 41
0.00
 42
0.414
  0
VERTEX
  8
SHEET
 10
18200.00
 20
23450.00
  0
VERTEX
  8
SHEET
 10
18200.00
 20
23450.00
 40
0.00
 41
0.00
 42
0.414
  0
VERTEX
  8
SHEET
 10
18150.00
 20
23400.00
  0
VERTEX
  8
SHEET
 10
18150.00
 20
23400.00
 40
0.00
 41
0.00
 42
0.414
  0
VERTEX
  8
SHEET
 10
18200.00
 20
23350.00
  0
VERTEX
  8
SHEET
 10
18200.00
 20
23350.00
 40
0.00
 41
0.00
  0
VERTEX
  8
SHEET
 10
18300.00
 20
23350.00
 40
0.00
 41
0.00
  0
VERTEX
  8
SHEET
 10
18300.00
 20
23350.00
  0
SEQEND
  8
SHEET
  0
TEXT
  8
SHEET
 62
     5
 10
18025.00
 20
23225.00
 40
50.00
  1
T2
  0
INSERT
  8
SHEET
  2
2
 10
17850.00
 20
21800.00
 50
270.000
  0
TEXT
  8
SHEET
 62
    54
 10
17675.00
 20
21725.00
 40
50.00
  1
PRIMS
 72
     2
 11
17925.00
 21
21725.00
  0
TEXT
  8
SHEET
 62
    145
 10
17875.00
 20
21825.00
 40
50.00
  1
1
 72
     2
 11
17925.00
 21
21825.00
  0
INSERT
  8
SHEET
  2
2
 10
17850.00
 20
21400.00
 50
270.000
  0
TEXT
  8
SHEET
 62
    54
 10
17675.00
 20
21325.00
 40
50.00
  1
PRIMF
 72
     2
 11
17925.00
 21
21325.00
  0
TEXT
  8
SHEET
 62
    145
 10
17875.00
 20
21425.00
 40
50.00
  1
2
 72
     2
 11
17925.00
 21
21425.00
  0
INSERT
  8
SHEET
  2
2
 10
18250.00
 20
21800.00
 50
270.000
  0
TEXT
  8
SHEET
 62
    54
 10
18175.00
 20
21725.00
 40
50.00
  1
SECS
  0
TEXT
  8
SHEET
 62
    145
 10
18175.00
 20
21825.00
 40
50.00
  1
4
  0
INSERT
  8
SHEET
  2
2
 10
18250.00
 20
21400.00
 50
270.000
  0
TEXT
  8
SHEET
 62
    54
 10
18175.00
 20
21325.00
 40
50.00
  1
SECF
  0
TEXT
  8
SHEET
 62
    145
 10
18175.00
 20
21425.00
 40
50.00
  1
3
  0
POLYLINE
  8
SHEET
 66
     1
 10
0.00
 20
0.00
 40
0.00
 41
0.00
  0
VERTEX
  8
SHEET
 10
17850.00
 20
21800.00
 40
0.00
 41
0.00
  0
VERTEX
  8
SHEET
 10
17950.00
 20
21800.00
  0
VERTEX
  8
SHEET
 10
17950.00
 20
21800.00
 40
0.00
 41
0.00
 42
-0.414
  0
VERTEX
  8
SHEET
 10
18000.00
 20
21750.00
  0
VERTEX
  8
SHEET
 10
18000.00
 20
21750.00
 40
0.00
 41
0.00
 42
-0.414
  0
VERTEX
  8
SHEET
 10
17950.00
 20
21700.00
  0
VERTEX
  8
SHEET
 10
17950.00
 20
21700.00
 40
0.00
 41
0.00
 42
-0.414
  0
VERTEX
  8
SHEET
 10
18000.00
 20
21650.00
  0
VERTEX
  8
SHEET
 10
18000.00
 20
21650.00
 40
0.00
 41
0.00
 42
-0.414
  0
VERTEX
  8
SHEET
 10
17950.00
 20
21600.00
  0
VERTEX
  8
SHEET
 10
17950.00
 20
21600.00
 40
0.00
 41
0.00
 42
-0.414
  0
VERTEX
  8
SHEET
 10
18000.00
 20
21550.00
  0
VERTEX
  8
SHEET
 10
18000.00
 20
21550.00
 40
0.00
 41
0.00
 42
-0.414
  0
VERTEX
  8
SHEET
 10
17950.00
 20
21500.00
  0
VERTEX
  8
SHEET
 10
17950.00
 20
21500.00
 40
0.00
 41
0.00
 42
-0.414
  0
VERTEX
  8
SHEET
 10
18000.00
 20
21450.00
  0
VERTEX
  8
SHEET
 10
18000.00
 20
21450.00
 40
0.00
 41
0.00
 42
-0.414
  0
VERTEX
  8
SHEET
 10
17950.00
 20
21400.00
  0
VERTEX
  8
SHEET
 10
17950.00
 20
21400.00
 40
0.00
 41
0.00
  0
VERTEX
  8
SHEET
 10
17850.00
 20
21400.00
 40
0.00
 41
0.00
  0
VERTEX
  8
SHEET
 10
17850.00
 20
21400.00
  0
SEQEND
  8
SHEET
  0
POLYLINE
  8
SHEET
 66
     1
 10
0.00
 20
0.00
 40
0.00
 41
0.00
  0
VERTEX
  8
SHEET
 10
18250.00
 20
21800.00
 40
0.00
 41
0.00
  0
VERTEX
  8
SHEET
 10
18150.00
 20
21800.00
  0
VERTEX
  8
SHEET
 10
18150.00
 20
21800.00
 40
0.00
 41
0.00
 42
0.414
  0
VERTEX
  8
SHEET
 10
18100.00
 20
21750.00
  0
VERTEX
  8
SHEET
 10
18100.00
 20
21750.00
 40
0.00
 41
0.00
 42
0.414
  0
VERTEX
  8
SHEET
 10
18150.00
 20
21700.00
  0
VERTEX
  8
SHEET
 10
18150.00
 20
21700.00
 40
0.00
 41
0.00
 42
0.414
  0
VERTEX
  8
SHEET
 10
18100.00
 20
21650.00
  0
VERTEX
  8
SHEET
 10
18100.00
 20
21650.00
 40
0.00
 41
0.00
 42
0.414
  0
VERTEX
  8
SHEET
 10
18150.00
 20
21600.00
  0
VERTEX
  8
SHEET
 10
18150.00
 20
21600.00
 40
0.00
 41
0.00
 42
0.414
  0
VERTEX
  8
SHEET
 10
18100.00
 20
21550.00
  0
VERTEX
  8
SHEET
 10
18100.00
 20
21550.00
 40
0.00
 41
0.00
 42
0.414
  0
VERTEX
  8
SHEET
 10
18150.00
 20
21500.00
  0
VERTEX
  8
SHEET
 10
18150.00
 20
21500.00
 40
0.00
 41
0.00
 42
0.414
  0
VERTEX
  8
SHEET
 10
18100.00
 20
21450.00
  0
VERTEX
  8
SHEET
 10
18100.00
 20
21450.00
 40
0.00
 41
0.00
 42
0.414
  0
VERTEX
  8
SHEET
 10
18150.00
 20
21400.00
  0
VERTEX
  8
SHEET
 10
18150.00
 20
21400.00
 40
0.00
 41
0.00
  0
VERTEX
  8
SHEET
 10
18250.00
 20
21400.00
 40
0.00
 41
0.00
  0
VERTEX
  8
SHEET
 10
18250.00
 20
21400.00
  0
SEQEND
  8
SHEET
  0
TEXT
  8
SHEET
 62
     5
 10
17975.00
 20
21275.00
 40
50.00
  1
T3
  0
INSERT
  8
SHEET
  2
2
 10
23550.00
 20
21650.00
 50
270.000
  0
TEXT
  8
SHEET
 62
    54
 10
23375.00
 20
21575.00
 40
50.00
  1
PRIMS
 72
     2
 11
23625.00
 21
21575.00
  0
TEXT
  8
SHEET
 62
    145
 10
23575.00
 20
21675.00
 40
50.00
  1
1
 72
     2
 11
23625.00
 21
21675.00
  0
INSERT
  8
SHEET
  2
2
 10
23550.00
 20
21250.00
 50
270.000
  0
TEXT
  8
SHEET
 62
    54
 10
23375.00
 20
21175.00
 40
50.00
  1
PRIMF
 72
     2
 11
23625.00
 21
21175.00
  0
TEXT
  8
SHEET
 62
    145
 10
23575.00
 20
21275.00
 40
50.00
  1
2
 72
     2
 11
23625.00
 21
21275.00
  0
INSERT
  8
SHEET
  2
2
 10
23950.00
 20
21650.00
 50
270.000
  0
TEXT
  8
SHEET
 62
    54
 10
23875.00
 20
21575.00
 40
50.00
  1
SECS
  0
TEXT
  8
SHEET
 62
    145
 10
23875.00
 20
21675.00
 40
50.00
  1
4
  0
INSERT
  8
SHEET
  2
2
 10
23950.00
 20
21250.00
 50
270.000
  0
TEXT
  8
SHEET
 62
    54
 10
23875.00
 20
21175.00
 40
50.00
  1
SECF
  0
TEXT
  8
SHEET
 62
    145
 10
23875.00
 20
21275.00
 40
50.00
  1
3
  0
POLYLINE
  8
SHEET
 66
     1
 10
0.00
 20
0.00
 40
0.00
 41
0.00
  0
VERTEX
  8
SHEET
 10
23550.00
 20
21650.00
 40
0.00
 41
0.00
  0
VERTEX
  8
SHEET
 10
23650.00
 20
21650.00
  0
VERTEX
  8
SHEET
 10
23650.00
 20
21650.00
 40
0.00
 41
0.00
 42
-0.414
  0
VERTEX
  8
SHEET
 10
23700.00
 20
21600.00
  0
VERTEX
  8
SHEET
 10
23700.00
 20
21600.00
 40
0.00
 41
0.00
 42
-0.414
  0
VERTEX
  8
SHEET
 10
23650.00
 20
21550.00
  0
VERTEX
  8
SHEET
 10
23650.00
 20
21550.00
 40
0.00
 41
0.00
 42
-0.414
  0
VERTEX
  8
SHEET
 10
23700.00
 20
21500.00
  0
VERTEX
  8
SHEET
 10
23700.00
 20
21500.00
 40
0.00
 41
0.00
 42
-0.414
  0
VERTEX
  8
SHEET
 10
23650.00
 20
21450.00
  0
VERTEX
  8
SHEET
 10
23650.00
 20
21450.00
 40
0.00
 41
0.00
 42
-0.414
  0
VERTEX
  8
SHEET
 10
23700.00
 20
21400.00
  0
VERTEX
  8
SHEET
 10
23700.00
 20
21400.00
 40
0.00
 41
0.00
 42
-0.414
  0
VERTEX
  8
SHEET
 10
23650.00
 20
21350.00
  0
VERTEX
  8
SHEET
 10
23650.00
 20
21350.00
 40
0.00
 41
0.00
 42
-0.414
  0
VERTEX
  8
SHEET
 10
23700.00
 20
21300.00
  0
VERTEX
  8
SHEET
 10
23700.00
 20
21300.00
 40
0.00
 41
0.00
 42
-0.414
  0
VERTEX
  8
SHEET
 10
23650.00
 20
21250.00
  0
VERTEX
  8
SHEET
 10
23650.00
 20
21250.00
 40
0.00
 41
0.00
  0
VERTEX
  8
SHEET
 10
23550.00
 20
21250.00
 40
0.00
 41
0.00
  0
VERTEX
  8
SHEET
 10
23550.00
 20
21250.00
  0
SEQEND
  8
SHEET
  0
POLYLINE
  8
SHEET
 66
     1
 10
0.00
 20
0.00
 40
0.00
 41
0.00
  0
VERTEX
  8
SHEET
 10
23950.00
 20
21650.00
 40
0.00
 41
0.00
  0
VERTEX
  8
SHEET
 10
23850.00
 20
21650.00
  0
VERTEX
  8
SHEET
 10
23850.00
 20
21650.00
 40
0.00
 41
0.00
 42
0.414
  0
VERTEX
  8
SHEET
 10
23800.00
 20
21600.00
  0
VERTEX
  8
SHEET
 10
23800.00
 20
21600.00
 40
0.00
 41
0.00
 42
0.414
  0
VERTEX
  8
SHEET
 10
23850.00
 20
21550.00
  0
VERTEX
  8
SHEET
 10
23850.00
 20
21550.00
 40
0.00
 41
0.00
 42
0.414
  0
VERTEX
  8
SHEET
 10
23800.00
 20
21500.00
  0
VERTEX
  8
SHEET
 10
23800.00
 20
21500.00
 40
0.00
 41
0.00
 42
0.414
  0
VERTEX
  8
SHEET
 10
23850.00
 20
21450.00
  0
VERTEX
  8
SHEET
 10
23850.00
 20
21450.00
 40
0.00
 41
0.00
 42
0.414
  0
VERTEX
  8
SHEET
 10
23800.00
 20
21400.00
  0
VERTEX
  8
SHEET
 10
23800.00
 20
21400.00
 40
0.00
 41
0.00
 42
0.414
  0
VERTEX
  8
SHEET
 10
23850.00
 20
21350.00
  0
VERTEX
  8
SHEET
 10
23850.00
 20
21350.00
 40
0.00
 41
0.00
 42
0.414
  0
VERTEX
  8
SHEET
 10
23800.00
 20
21300.00
  0
VERTEX
  8
SHEET
 10
23800.00
 20
21300.00
 40
0.00
 41
0.00
 42
0.414
  0
VERTEX
  8
SHEET
 10
23850.00
 20
21250.00
  0
VERTEX
  8
SHEET
 10
23850.00
 20
21250.00
 40
0.00
 41
0.00
  0
VERTEX
  8
SHEET
 10
23950.00
 20
21250.00
 40
0.00
 41
0.00
  0
VERTEX
  8
SHEET
 10
23950.00
 20
21250.00
  0
SEQEND
  8
SHEET
  0
TEXT
  8
SHEET
 62
     5
 10
23675.00
 20
21125.00
 40
50.00
  1
T4
  0
INSERT
  8
SHEET
  2
2
 10
23600.00
 20
20650.00
 50
270.000
  0
TEXT
  8
SHEET
 62
    54
 10
23425.00
 20
20575.00
 40
50.00
  1
PRIMS
 72
     2
 11
23675.00
 21
20575.00
  0
TEXT
  8
SHEET
 62
    145
 10
23625.00
 20
20675.00
 40
50.00
  1
1
 72
     2
 11
23675.00
 21
20675.00
  0
INSERT
  8
SHEET
  2
2
 10
23600.00
 20
20250.00
 50
270.000
  0
TEXT
  8
SHEET
 62
    54
 10
23425.00
 20
20175.00
 40
50.00
  1
PRIMF
 72
     2
 11
23675.00
 21
20175.00
  0
TEXT
  8
SHEET
 62
    145
 10
23625.00
 20
20275.00
 40
50.00
  1
2
 72
     2
 11
23675.00
 21
20275.00
  0
INSERT
  8
SHEET
  2
2
 10
24000.00
 20
20650.00
 50
270.000
  0
TEXT
  8
SHEET
 62
    54
 10
23925.00
 20
20575.00
 40
50.00
  1
SECS
  0
TEXT
  8
SHEET
 62
    145
 10
23925.00
 20
20675.00
 40
50.00
  1
4
  0
INSERT
  8
SHEET
  2
2
 10
24000.00
 20
20250.00
 50
270.000
  0
TEXT
  8
SHEET
 62
    54
 10
23925.00
 20
20175.00
 40
50.00
  1
SECF
  0
TEXT
  8
SHEET
 62
    145
 10
23925.00
 20
20275.00
 40
50.00
  1
3
  0
POLYLINE
  8
SHEET
 66
     1
 10
0.00
 20
0.00
 40
0.00
 41
0.00
  0
VERTEX
  8
SHEET
 10
23600.00
 20
20650.00
 40
0.00
 41
0.00
  0
VERTEX
  8
SHEET
 10
23700.00
 20
20650.00
  0
VERTEX
  8
SHEET
 10
23700.00
 20
20650.00
 40
0.00
 41
0.00
 42
-0.414
  0
VERTEX
  8
SHEET
 10
23750.00
 20
20600.00
  0
VERTEX
  8
SHEET
 10
23750.00
 20
20600.00
 40
0.00
 41
0.00
 42
-0.414
  0
VERTEX
  8
SHEET
 10
23700.00
 20
20550.00
  0
VERTEX
  8
SHEET
 10
23700.00
 20
20550.00
 40
0.00
 41
0.00
 42
-0.414
  0
VERTEX
  8
SHEET
 10
23750.00
 20
20500.00
  0
VERTEX
  8
SHEET
 10
23750.00
 20
20500.00
 40
0.00
 41
0.00
 42
-0.414
  0
VERTEX
  8
SHEET
 10
23700.00
 20
20450.00
  0
VERTEX
  8
SHEET
 10
23700.00
 20
20450.00
 40
0.00
 41
0.00
 42
-0.414
  0
VERTEX
  8
SHEET
 10
23750.00
 20
20400.00
  0
VERTEX
  8
SHEET
 10
23750.00
 20
20400.00
 40
0.00
 41
0.00
 42
-0.414
  0
VERTEX
  8
SHEET
 10
23700.00
 20
20350.00
  0
VERTEX
  8
SHEET
 10
23700.00
 20
20350.00
 40
0.00
 41
0.00
 42
-0.414
  0
VERTEX
  8
SHEET
 10
23750.00
 20
20300.00
  0
VERTEX
  8
SHEET
 10
23750.00
 20
20300.00
 40
0.00
 41
0.00
 42
-0.414
  0
VERTEX
  8
SHEET
 10
23700.00
 20
20250.00
  0
VERTEX
  8
SHEET
 10
23700.00
 20
20250.00
 40
0.00
 41
0.00
  0
VERTEX
  8
SHEET
 10
23600.00
 20
20250.00
 40
0.00
 41
0.00
  0
VERTEX
  8
SHEET
 10
23600.00
 20
20250.00
  0
SEQEND
  8
SHEET
  0
POLYLINE
  8
SHEET
 66
     1
 10
0.00
 20
0.00
 40
0.00
 41
0.00
  0
VERTEX
  8
SHEET
 10
24000.00
 20
20650.00
 40
0.00
 41
0.00
  0
VERTEX
  8
SHEET
 10
23900.00
 20
20650.00
  0
VERTEX
  8
SHEET
 10
23900.00
 20
20650.00
 40
0.00
 41
0.00
 42
0.414
  0
VERTEX
  8
SHEET
 10
23850.00
 20
20600.00
  0
VERTEX
  8
SHEET
 10
23850.00
 20
20600.00
 40
0.00
 41
0.00
 42
0.414
  0
VERTEX
  8
SHEET
 10
23900.00
 20
20550.00
  0
VERTEX
  8
SHEET
 10
23900.00
 20
20550.00
 40
0.00
 41
0.00
 42
0.414
  0
VERTEX
  8
SHEET
 10
23850.00
 20
20500.00
  0
VERTEX
  8
SHEET
 10
23850.00
 20
20500.00
 40
0.00
 41
0.00
 42
0.414
  0
VERTEX
  8
SHEET
 10
23900.00
 20
20450.00
  0
VERTEX
  8
SHEET
 10
23900.00
 20
20450.00
 40
0.00
 41
0.00
 42
0.414
  0
VERTEX
  8
SHEET
 10
23850.00
 20
20400.00
  0
VERTEX
  8
SHEET
 10
23850.00
 20
20400.00
 40
0.00
 41
0.00
 42
0.414
  0
VERTEX
  8
SHEET
 10
23900.00
 20
20350.00
  0
VERTEX
  8
SHEET
 10
23900.00
 20
20350.00
 40
0.00
 41
0.00
 42
0.414
  0
VERTEX
  8
SHEET
 10
23850.00
 20
20300.00
  0
VERTEX
  8
SHEET
 10
23850.00
 20
20300.00
 40
0.00
 41
0.00
 42
0.414
  0
VERTEX
  8
SHEET
 10
23900.00
 20
20250.00
  0
VERTEX
  8
SHEET
 10
23900.00
 20
20250.00
 40
0.00
 41
0.00
  0
VERTEX
  8
SHEET
 10
24000.00
 20
20250.00
 40
0.00
 41
0.00
  0
VERTEX
  8
SHEET
 10
24000.00
 20
20250.00
  0
SEQEND
  8
SHEET
  0
TEXT
  8
SHEET
 62
     5
 10
23725.00
 20
20125.00
 40
50.00
  1
T5
  0
INSERT
  8
SHEET
  2
2
 10
20700.00
 20
23050.00
 50
180.000
  0
INSERT
  8
SHEET
  2
__JUNCTIONS__
 10
20700.00
 20
23050.00
 50
180.000
  0
INSERT
  8
SHEET
  2
2
 10
20700.00
 20
22550.00
 50
180.000
  0
POLYLINE
  8
SHEET
 66
     1
 10
0.00
 20
0.00
 40
0.00
 41
0.00
  0
VERTEX
  8
SHEET
 10
20700.00
 20
22950.00
 40
0.00
 41
0.00
 42
-0.414
  0
VERTEX
  8
SHEET
 10
20750.00
 20
22900.00
  0
VERTEX
  8
SHEET
 10
20750.00
 20
22900.00
 40
0.00
 41
0.00
 42
-0.414
  0
VERTEX
  8
SHEET
 10
20700.00
 20
22850.00
  0
VERTEX
  8
SHEET
 10
20700.00
 20
22850.00
 40
0.00
 41
0.00
 42
-0.414
  0
VERTEX
  8
SHEET
 10
20750.00
 20
22800.00
  0
VERTEX
  8
SHEET
 10
20750.00
 20
22800.00
 40
0.00
 41
0.00
 42
-0.414
  0
VERTEX
  8
SHEET
 10
20700.00
 20
22750.00
  0
VERTEX
  8
SHEET
 10
20700.00
 20
22750.00
 40
0.00
 41
0.00
 42
-0.414
  0
VERTEX
  8
SHEET
 10
20750.00
 20
22700.00
  0
VERTEX
  8
SHEET
 10
20750.00
 20
22700.00
 40
0.00
 41
0.00
 42
-0.414
  0
VERTEX
  8
SHEET
 10
20700.00
 20
22650.00
  0
VERTEX
  8
SHEET
 10
20700.00
 20
22650.00
 40
0.00
 41
0.00
  0
VERTEX
  8
SHEET
 10
20700.00
 20
22550.00
 40
0.00
 41
0.00
  0
VERTEX
  8
SHEET
 10
20700.00
 20
22550.00
  0
SEQEND
  8
SHEET
  0
POLYLINE
  8
SHEET
 66
     1
 10
0.00
 20
0.00
 40
0.00
 41
0.00
  0
VERTEX
  8
SHEET
 10
20700.00
 20
23050.00
 40
0.00
 41
0.00
  0
VERTEX
  8
SHEET
 10
20700.00
 20
22950.00
 40
0.00
 41
0.00
  0
VERTEX
  8
SHEET
 10
20700.00
 20
22950.00
  0
SEQEND
  8
SHEET
  0
TEXT
  8
SHEET
 62
     5
 10
20900.00
 20
23000.00
 40
50.00
  1
L1
 50
270.000
  0
TEXT
  8
SHEET
 62
     5
 10
20840.00
 20
23000.00
 40
50.00
  1
13.5uH
 50
270.000
  0
INSERT
  8
SHEET
  2
2
 10
20550.00
 20
25000.00
 50
180.000
  0
INSERT
  8
SHEET
  2
2
 10
20550.00
 20
24500.00
 50
180.000
  0
POLYLINE
  8
SHEET
 66
     1
 10
0.00
 20
0.00
 40
0.00
 41
0.00
  0
VERTEX
  8
SHEET
 10
20550.00
 20
24900.00
 40
0.00
 41
0.00
 42
-0.414
  0
VERTEX
  8
SHEET
 10
20600.00
 20
24850.00
  0
VERTEX
  8
SHEET
 10
20600.00
 20
24850.00
 40
0.00
 41
0.00
 42
-0.414
  0
VERTEX
  8
SHEET
 10
20550.00
 20
24800.00
  0
VERTEX
  8
SHEET
 10
20550.00
 20
24800.00
 40
0.00
 41
0.00
 42
-0.414
  0
VERTEX
  8
SHEET
 10
20600.00
 20
24750.00
  0
VERTEX
  8
SHEET
 10
20600.00
 20
24750.00
 40
0.00
 41
0.00
 42
-0.414
  0
VERTEX
  8
SHEET
 10
20550.00
 20
24700.00
  0
VERTEX
  8
SHEET
 10
20550.00
 20
24700.00
 40
0.00
 41
0.00
 42
-0.414
  0
VERTEX
  8
SHEET
 10
20600.00
 20
24650.00
  0
VERTEX
  8
SHEET
 10
20600.00
 20
24650.00
 40
0.00
 41
0.00
 42
-0.414
  0
VERTEX
  8
SHEET
 10
20550.00
 20
24600.00
  0
VERTEX
  8
SHEET
 10
20550.00
 20
24600.00
 40
0.00
 41
0.00
  0
VERTEX
  8
SHEET
 10
20550.00
 20
24500.00
 40
0.00
 41
0.00
  0
VERTEX
  8
SHEET
 10
20550.00
 20
24500.00
  0
SEQEND
  8
SHEET
  0
POLYLINE
  8
SHEET
 66
     1
 10
0.00
 20
0.00
 40
0.00
 41
0.00
  0
VERTEX
  8
SHEET
 10
20550.00
 20
25000.00
 40
0.00
 41
0.00
  0
VERTEX
  8
SHEET
 10
20550.00
 20
24900.00
 40
0.00
 41
0.00
  0
VERTEX
  8
SHEET
 10
20550.00
 20
24900.00
  0
SEQEND
  8
SHEET
  0
TEXT
  8
SHEET
 62
     5
 10
20700.00
 20
24650.00
 40
50.00
  1
L2
 50
270.000
  0
TEXT
  8
SHEET
 62
     5
 10
20640.00
 20
24650.00
 40
50.00
  1
8uH
 50
270.000
  0
INSERT
  8
SHEET
  2
2
 10
23100.00
 20
20650.00
 50
270.000
  0
INSERT
  8
SHEET
  2
2
 10
23350.00
 20
20650.00
 50
270.000
  0
POLYLINE
  8
SHEET
 66
     1
 10
0.00
 20
0.00
 40
0.00
 41
0.00
  0
VERTEX
  8
SHEET
 10
23200.00
 20
20750.00
 40
0.00
 41
0.00
  0
VERTEX
  8
SHEET
 10
23200.00
 20
20550.00
 40
0.00
 41
0.00
  0
VERTEX
  8
SHEET
 10
23200.00
 20
20550.00
  0
SEQEND
  8
SHEET
  0
POLYLINE
  8
SHEET
 66
     1
 10
0.00
 20
0.00
 40
0.00
 41
0.00
  0
VERTEX
  8
SHEET
 10
23250.00
 20
20750.00
 40
0.00
 41
0.00
  0
VERTEX
  8
SHEET
 10
23250.00
 20
20550.00
 40
0.00
 41
0.00
  0
VERTEX
  8
SHEET
 10
23250.00
 20
20550.00
  0
SEQEND
  8
SHEET
  0
POLYLINE
  8
SHEET
 66
     1
 10
0.00
 20
0.00
 40
0.00
 41
0.00
  0
VERTEX
  8
SHEET
 10
23100.00
 20
20650.00
 40
0.00
 41
0.00
  0
VERTEX
  8
SHEET
 10
23200.00
 20
20650.00
 40
0.00
 41
0.00
  0
VERTEX
  8
SHEET
 10
23200.00
 20
20650.00
  0
SEQEND
  8
SHEET
  0
POLYLINE
  8
SHEET
 66
     1
 10
0.00
 20
0.00
 40
0.00
 41
0.00
  0
VERTEX
  8
SHEET
 10
23250.00
 20
20650.00
 40
0.00
 41
0.00
  0
VERTEX
  8
SHEET
 10
23350.00
 20
20650.00
 40
0.00
 41
0.00
  0
VERTEX
  8
SHEET
 10
23350.00
 20
20650.00
  0
SEQEND
  8
SHEET
  0
TEXT
  8
SHEET
 62
     5
 10
23175.00
 20
20475.00
 40
50.00
  1
C1
  0
TEXT
  8
SHEET
 62
     5
 10
23175.00
 20
20415.00
 40
50.00
  1
0.1ufd
  0
INSERT
  8
SHEET
  2
2
 10
18500.00
 20
25750.00
 50
270.000
  0
TEXT
  8
SHEET
 62
    145
 10
18525.00
 20
25775.00
 40
50.00
  1
1
 72
     2
 11
18575.00
 21
25775.00
  0
INSERT
  8
SHEET
  2
2
 10
18750.00
 20
25750.00
 50
270.000
  0
TEXT
  8
SHEET
 62
    145
 10
18675.00
 20
25775.00
 40
50.00
  1
2
  0
POLYLINE
  8
SHEET
 66
     1
 10
0.00
 20
0.00
 40
0.00
 41
0.00
  0
VERTEX
  8
SHEET
 10
18600.00
 20
25850.00
 40
0.00
 41
0.00
  0
VERTEX
  8
SHEET
 10
18600.00
 20
25650.00
 40
0.00
 41
0.00
  0
VERTEX
  8
SHEET
 10
18600.00
 20
25650.00
  0
SEQEND
  8
SHEET
  0
POLYLINE
  8
SHEET
 66
     1
 10
0.00
 20
0.00
 40
0.00
 41
0.00
  0
VERTEX
  8
SHEET
 10
18650.00
 20
25850.00
 40
0.00
 41
0.00
  0
VERTEX
  8
SHEET
 10
18650.00
 20
25650.00
 40
0.00
 41
0.00
  0
VERTEX
  8
SHEET
 10
18650.00
 20
25650.00
  0
SEQEND
  8
SHEET
  0
POLYLINE
  8
SHEET
 66
     1
 10
0.00
 20
0.00
 40
0.00
 41
0.00
  0
VERTEX
  8
SHEET
 10
18500.00
 20
25750.00
 40
0.00
 41
0.00
  0
VERTEX
  8
SHEET
 10
18600.00
 20
25750.00
 40
0.00
 41
0.00
  0
VERTEX
  8
SHEET
 10
18600.00
 20
25750.00
  0
SEQEND
  8
SHEET
  0
POLYLINE
  8
SHEET
 66
     1
 10
0.00
 20
0.00
 40
0.00
 41
0.00
  0
VERTEX
  8
SHEET
 10
18650.00
 20
25750.00
 40
0.00
 41
0.00
  0
VERTEX
  8
SHEET
 10
18750.00
 20
25750.00
 40
0.00
 41
0.00
  0
VERTEX
  8
SHEET
 10
18750.00
 20
25750.00
  0
SEQEND
  8
SHEET
  0
TEXT
  8
SHEET
 62
     5
 10
18575.00
 20
25575.00
 40
50.00
  1
C5
  0
TEXT
  8
SHEET
 62
     5
 10
18575.00
 20
25515.00
 40
50.00
  1
0.22ufd
  0
TEXT
  8
SHEET
 62
     5
 10
18575.00
 20
25455.00
 40
50.00
  1
1600VDC
  0
INSERT
  8
SHEET
  2
2
 10
23000.00
 20
21650.00
 50
270.000
  0
INSERT
  8
SHEET
  2
2
 10
23250.00
 20
21650.00
 50
270.000
  0
POLYLINE
  8
SHEET
 66
     1
 10
0.00
 20
0.00
 40
0.00
 41
0.00
  0
VERTEX
  8
SHEET
 10
23100.00
 20
21750.00
 40
0.00
 41
0.00
  0
VERTEX
  8
SHEET
 10
23100.00
 20
21550.00
 40
0.00
 41
0.00
  0
VERTEX
  8
SHEET
 10
23100.00
 20
21550.00
  0
SEQEND
  8
SHEET
  0
POLYLINE
  8
SHEET
 66
     1
 10
0.00
 20
0.00
 40
0.00
 41
0.00
  0
VERTEX
  8
SHEET
 10
23150.00
 20
21750.00
 40
0.00
 41
0.00
  0
VERTEX
  8
SHEET
 10
23150.00
 20
21550.00
 40
0.00
 41
0.00
  0
VERTEX
  8
SHEET
 10
23150.00
 20
21550.00
  0
SEQEND
  8
SHEET
  0
POLYLINE
  8
SHEET
 66
     1
 10
0.00
 20
0.00
 40
0.00
 41
0.00
  0
VERTEX
  8
SHEET
 10
23000.00
 20
21650.00
 40
0.00
 41
0.00
  0
VERTEX
  8
SHEET
 10
23100.00
 20
21650.00
 40
0.00
 41
0.00
  0
VERTEX
  8
SHEET
 10
23100.00
 20
21650.00
  0
SEQEND
  8
SHEET
  0
POLYLINE
  8
SHEET
 66
     1
 10
0.00
 20
0.00
 40
0.00
 41
0.00
  0
VERTEX
  8
SHEET
 10
23150.00
 20
21650.00
 40
0.00
 41
0.00
  0
VERTEX
  8
SHEET
 10
23250.00
 20
21650.00
 40
0.00
 41
0.00
  0
VERTEX
  8
SHEET
 10
23250.00
 20
21650.00
  0
SEQEND
  8
SHEET
  0
TEXT
  8
SHEET
 62
     5
 10
23075.00
 20
21475.00
 40
50.00
  1
C6
  0
TEXT
  8
SHEET
 62
     5
 10
23075.00
 20
21415.00
 40
50.00
  1
0.1ufd
  0
INSERT
  8
SHEET
  2
2
 10
16700.00
 20
26750.00
 50
270.000
  0
TEXT
  8
SHEET
 62
    54
 10
16725.00
 20
26650.00
 40
50.00
  1
C
  0
INSERT
  8
SHEET
  2
2
 10
17100.00
 20
26950.00
 50
270.000
  0
TEXT
  8
SHEET
 62
    54
 10
17025.00
 20
26775.00
 40
50.00
  1
NC
  0
INSERT
  8
SHEET
  2
2
 10
17100.00
 20
26550.00
 50
270.000
  0
TEXT
  8
SHEET
 62
    54
 10
17025.00
 20
26650.00
 40
50.00
  1
NO
  0
POLYLINE
  8
SHEET
 66
     1
 10
0.00
 20
0.00
 40
0.00
 41
0.00
  0
VERTEX
  8
SHEET
 10
17100.00
 20
26925.00
 40
0.00
 41
0.00
 42
0.414
  0
VERTEX
  8
SHEET
 10
17075.00
 20
26900.00
  0
VERTEX
  8
SHEET
 10
17075.00
 20
26900.00
 40
0.00
 41
0.00
 42
0.414
  0
VERTEX
  8
SHEET
 10
17100.00
 20
26875.00
  0
VERTEX
  8
SHEET
 10
17100.00
 20
26875.00
 40
0.00
 41
0.00
 42
0.414
  0
VERTEX
  8
SHEET
 10
17125.00
 20
26900.00
  0
VERTEX
  8
SHEET
 10
17125.00
 20
26900.00
 40
0.00
 41
0.00
 42
0.414
  0
VERTEX
  8
SHEET
 10
17100.00
 20
26925.00
  0
VERTEX
  8
SHEET
 10
17100.00
 20
26925.00
 40
0.00
 41
0.00
  0
VERTEX
  8
SHEET
 10
17100.00
 20
26950.00
 40
0.00
 41
0.00
  0
VERTEX
  8
SHEET
 10
17100.00
 20
26950.00
  0
SEQEND
  8
SHEET
  0
POLYLINE
  8
SHEET
 66
     1
 10
0.00
 20
0.00
 40
0.00
 41
0.00
  0
VERTEX
  8
SHEET
 10
17100.00
 20
26575.00
 40
0.00
 41
0.00
 42
0.414
  0
VERTEX
  8
SHEET
 10
17125.00
 20
26600.00
  0
VERTEX
  8
SHEET
 10
17125.00
 20
26600.00
 40
0.00
 41
0.00
 42
0.414
  0
VERTEX
  8
SHEET
 10
17100.00
 20
26625.00
  0
VERTEX
  8
SHEET
 10
17100.00
 20
26625.00
 40
0.00
 41
0.00
 42
0.414
  0
VERTEX
  8
SHEET
 10
17075.00
 20
26600.00
  0
VERTEX
  8
SHEET
 10
17075.00
 20
26600.00
 40
0.00
 41
0.00
 42
0.414
  0
VERTEX
  8
SHEET
 10
17100.00
 20
26575.00
  0
VERTEX
  8
SHEET
 10
17100.00
 20
26575.00
 40
0.00
 41
0.00
  0
VERTEX
  8
SHEET
 10
17100.00
 20
26550.00
 40
0.00
 41
0.00
  0
VERTEX
  8
SHEET
 10
17100.00
 20
26550.00
  0
SEQEND
  8
SHEET
  0
POLYLINE
  8
SHEET
 66
     1
 10
0.00
 20
0.00
 40
0.00
 41
0.00
  0
VERTEX
  8
SHEET
 10
16725.00
 20
26750.00
 40
0.00
 41
0.00
 42
0.414
  0
VERTEX
  8
SHEET
 10
16750.00
 20
26725.00
  0
VERTEX
  8
SHEET
 10
16750.00
 20
26725.00
 40
0.00
 41
0.00
 42
0.414
  0
VERTEX
  8
SHEET
 10
16775.00
 20
26750.00
  0
VERTEX
  8
SHEET
 10
16775.00
 20
26750.00
 40
0.00
 41
0.00
 42
0.414
  0
VERTEX
  8
SHEET
 10
16750.00
 20
26775.00
  0
VERTEX
  8
SHEET
 10
16750.00
 20
26775.00
 40
0.00
 41
0.00
 42
0.414
  0
VERTEX
  8
SHEET
 10
16725.00
 20
26750.00
  0
VERTEX
  8
SHEET
 10
16725.00
 20
26750.00
 40
0.00
 41
0.00
  0
VERTEX
  8
SHEET
 10
16700.00
 20
26750.00
 40
0.00
 41
0.00
  0
VERTEX
  8
SHEET
 10
16700.00
 20
26750.00
  0
SEQEND
  8
SHEET
  0
POLYLINE
  8
SHEET
 66
     1
 10
0.00
 20
0.00
 40
0.00
 41
0.00
  0
VERTEX
  8
SHEET
 10
17100.00
 20
26900.00
 40
0.00
 41
0.00
  0
VERTEX
  8
SHEET
 10
17099.00
 20
26900.00
 40
0.00
 41
0.00
  0
VERTEX
  8
SHEET
 10
17099.00
 20
26900.00
  0
SEQEND
  8
SHEET
  0
POLYLINE
  8
SHEET
 66
     1
 10
0.00
 20
0.00
 40
0.00
 41
0.00
  0
VERTEX
  8
SHEET
 10
16773.00
 20
26758.00
 40
0.00
 41
0.00
  0
VERTEX
  8
SHEET
 10
17150.00
 20
26890.00
 40
0.00
 41
0.00
  0
VERTEX
  8
SHEET
 10
17150.00
 20
26890.00
  0
SEQEND
  8
SHEET
  0
TEXT
  8
SHEET
 62
     5
 10
16775.00
 20
26575.00
 40
50.00
  1
SW1a
  0
TEXT
  8
SHEET
 62
     5
 10
16775.00
 20
26515.00
 40
50.00
  1
DPST
  0
INSERT
  8
SHEET
  2
2
 10
16700.00
 20
26150.00
 50
270.000
  0
TEXT
  8
SHEET
 62
    54
 10
16725.00
 20
26050.00
 40
50.00
  1
C
  0
INSERT
  8
SHEET
  2
2
 10
17100.00
 20
26350.00
 50
270.000
  0
TEXT
  8
SHEET
 62
    54
 10
17025.00
 20
26175.00
 40
50.00
  1
NC
  0
INSERT
  8
SHEET
  2
2
 10
17100.00
 20
25950.00
 50
270.000
  0
TEXT
  8
SHEET
 62
    54
 10
17025.00
 20
26050.00
 40
50.00
  1
NO
  0
POLYLINE
  8
SHEET
 66
     1
 10
0.00
 20
0.00
 40
0.00
 41
0.00
  0
VERTEX
  8
SHEET
 10
17100.00
 20
26325.00
 40
0.00
 41
0.00
 42
0.414
  0
VERTEX
  8
SHEET
 10
17075.00
 20
26300.00
  0
VERTEX
  8
SHEET
 10
17075.00
 20
26300.00
 40
0.00
 41
0.00
 42
0.414
  0
VERTEX
  8
SHEET
 10
17100.00
 20
26275.00
  0
VERTEX
  8
SHEET
 10
17100.00
 20
26275.00
 40
0.00
 41
0.00
 42
0.414
  0
VERTEX
  8
SHEET
 10
17125.00
 20
26300.00
  0
VERTEX
  8
SHEET
 10
17125.00
 20
26300.00
 40
0.00
 41
0.00
 42
0.414
  0
VERTEX
  8
SHEET
 10
17100.00
 20
26325.00
  0
VERTEX
  8
SHEET
 10
17100.00
 20
26325.00
 40
0.00
 41
0.00
  0
VERTEX
  8
SHEET
 10
17100.00
 20
26350.00
 40
0.00
 41
0.00
  0
VERTEX
  8
SHEET
 10
17100.00
 20
26350.00
  0
SEQEND
  8
SHEET
  0
POLYLINE
  8
SHEET
 66
     1
 10
0.00
 20
0.00
 40
0.00
 41
0.00
  0
VERTEX
  8
SHEET
 10
17100.00
 20
25975.00
 40
0.00
 41
0.00
 42
0.414
  0
VERTEX
  8
SHEET
 10
17125.00
 20
26000.00
  0
VERTEX
  8
SHEET
 10
17125.00
 20
26000.00
 40
0.00
 41
0.00
 42
0.414
  0
VERTEX
  8
SHEET
 10
17100.00
 20
26025.00
  0
VERTEX
  8
SHEET
 10
17100.00
 20
26025.00
 40
0.00
 41
0.00
 42
0.414
  0
VERTEX
  8
SHEET
 10
17075.00
 20
26000.00
  0
VERTEX
  8
SHEET
 10
17075.00
 20
26000.00
 40
0.00
 41
0.00
 42
0.414
  0
VERTEX
  8
SHEET
 10
17100.00
 20
25975.00
  0
VERTEX
  8
SHEET
 10
17100.00
 20
25975.00
 40
0.00
 41
0.00
  0
VERTEX
  8
SHEET
 10
17100.00
 20
25950.00
 40
0.00
 41
0.00
  0
VERTEX
  8
SHEET
 10
17100.00
 20
25950.00
  0
SEQEND
  8
SHEET
  0
POLYLINE
  8
SHEET
 66
     1
 10
0.00
 20
0.00
 40
0.00
 41
0.00
  0
VERTEX
  8
SHEET
 10
16725.00
 20
26150.00
 40
0.00
 41
0.00
 42
0.414
  0
VERTEX
  8
SHEET
 10
16750.00
 20
26125.00
  0
VERTEX
  8
SHEET
 10
16750.00
 20
26125.00
 40
0.00
 41
0.00
 42
0.414
  0
VERTEX
  8
SHEET
 10
16775.00
 20
26150.00
  0
VERTEX
  8
SHEET
 10
16775.00
 20
26150.00
 40
0.00
 41
0.00
 42
0.414
  0
VERTEX
  8
SHEET
 10
16750.00
 20
26175.00
  0
VERTEX
  8
SHEET
 10
16750.00
 20
26175.00
 40
0.00
 41
0.00
 42
0.414
  0
VERTEX
  8
SHEET
 10
16725.00
 20
26150.00
  0
VERTEX
  8
SHEET
 10
16725.00
 20
26150.00
 40
0.00
 41
0.00
  0
VERTEX
  8
SHEET
 10
16700.00
 20
26150.00
 40
0.00
 41
0.00
  0
VERTEX
  8
SHEET
 10
16700.00
 20
26150.00
  0
SEQEND
  8
SHEET
  0
POLYLINE
  8
SHEET
 66
     1
 10
0.00
 20
0.00
 40
0.00
 41
0.00
  0
VERTEX
  8
SHEET
 10
17100.00
 20
26300.00
 40
0.00
 41
0.00
  0
VERTEX
  8
SHEET
 10
17099.00
 20
26300.00
 40
0.00
 41
0.00
  0
VERTEX
  8
SHEET
 10
17099.00
 20
26300.00
  0
SEQEND
  8
SHEET
  0
POLYLINE
  8
SHEET
 66
     1
 10
0.00
 20
0.00
 40
0.00
 41
0.00
  0
VERTEX
  8
SHEET
 10
16773.00
 20
26158.00
 40
0.00
 41
0.00
  0
VERTEX
  8
SHEET
 10
17150.00
 20
26290.00
 40
0.00
 41
0.00
  0
VERTEX
  8
SHEET
 10
17150.00
 20
26290.00
  0
SEQEND
  8
SHEET
  0
TEXT
  8
SHEET
 62
     5
 10
16775.00
 20
25975.00
 40
50.00
  1
SW1b
  0
TEXT
  8
SHEET
 62
     5
 10
16775.00
 20
25915.00
 40
50.00
  1
DPST
  0
INSERT
  8
SHEET
  2
2
 10
21900.00
 20
21250.00
 50
270.000
  0
TEXT
  8
SHEET
 62
    54
 10
21925.00
 20
21175.00
 40
50.00
  1
A
  0
TEXT
  8
SHEET
 62
    145
 10
21925.00
 20
21275.00
 40
50.00
  1
1
 72
     2
 11
21975.00
 21
21275.00
  0
INSERT
  8
SHEET
  2
2
 10
22400.00
 20
21250.00
 50
270.000
  0
TEXT
  8
SHEET
 62
    54
 10
22325.00
 20
21175.00
 40
50.00
  1
B
 72
     2
 11
22375.00
 21
21175.00
  0
TEXT
  8
SHEET
 62
    145
 10
22325.00
 20
21275.00
 40
50.00
  1
2
  0
POLYLINE
  8
SHEET
 66
     1
 10
0.00
 20
0.00
 40
0.00
 41
0.00
  0
VERTEX
  8
SHEET
 10
22400.00
 20
21250.00
 40
0.00
 41
0.00
  0
VERTEX
  8
SHEET
 10
22300.00
 20
21250.00
  0
VERTEX
  8
SHEET
 10
22300.00
 20
21250.00
 40
0.00
 41
0.00
  0
VERTEX
  8
SHEET
 10
22275.00
 20
21300.00
  0
VERTEX
  8
SHEET
 10
22275.00
 20
21300.00
 40
0.00
 41
0.00
  0
VERTEX
  8
SHEET
 10
22225.00
 20
21200.00
  0
VERTEX
  8
SHEET
 10
22225.00
 20
21200.00
 40
0.00
 41
0.00
  0
VERTEX
  8
SHEET
 10
22175.00
 20
21300.00
  0
VERTEX
  8
SHEET
 10
22175.00
 20
21300.00
 40
0.00
 41
0.00
  0
VERTEX
  8
SHEET
 10
22125.00
 20
21200.00
  0
VERTEX
  8
SHEET
 10
22125.00
 20
21200.00
 40
0.00
 41
0.00
  0
VERTEX
  8
SHEET
 10
22075.00
 20
21300.00
  0
VERTEX
  8
SHEET
 10
22075.00
 20
21300.00
 40
0.00
 41
0.00
  0
VERTEX
  8
SHEET
 10
22025.00
 20
21200.00
  0
VERTEX
  8
SHEET
 10
22025.00
 20
21200.00
 40
0.00
 41
0.00
  0
VERTEX
  8
SHEET
 10
22000.00
 20
21250.00
  0
VERTEX
  8
SHEET
 10
22000.00
 20
21250.00
 40
0.00
 41
0.00
  0
VERTEX
  8
SHEET
 10
21900.00
 20
21250.00
 40
0.00
 41
0.00
  0
VERTEX
  8
SHEET
 10
21900.00
 20
21250.00
  0
SEQEND
  8
SHEET
  0
TEXT
  8
SHEET
 62
     5
 10
22075.00
 20
21125.00
 40
50.00
  1
R1
  0
TEXT
  8
SHEET
 62
     5
 10
22075.00
 20
21065.00
 40
50.00
  1
330
  0
INSERT
  8
SHEET
  2
2
 10
21400.00
 20
21650.00
 50
270.000
  0
INSERT
  8
SHEET
  2
2
 10
21900.00
 20
21650.00
 50
270.000
  0
POLYLINE
  8
SHEET
 66
     1
 10
0.00
 20
0.00
 40
0.00
 41
0.00
  0
VERTEX
  8
SHEET
 10
21900.00
 20
21650.00
 40
0.00
 41
0.00
  0
VERTEX
  8
SHEET
 10
21800.00
 20
21650.00
  0
VERTEX
  8
SHEET
 10
21800.00
 20
21650.00
 40
0.00
 41
0.00
  0
VERTEX
  8
SHEET
 10
21775.00
 20
21700.00
  0
VERTEX
  8
SHEET
 10
21775.00
 20
21700.00
 40
0.00
 41
0.00
  0
VERTEX
  8
SHEET
 10
21725.00
 20
21600.00
  0
VERTEX
  8
SHEET
 10
21725.00
 20
21600.00
 40
0.00
 41
0.00
  0
VERTEX
  8
SHEET
 10
21675.00
 20
21700.00
  0
VERTEX
  8
SHEET
 10
21675.00
 20
21700.00
 40
0.00
 41
0.00
  0
VERTEX
  8
SHEET
 10
21625.00
 20
21600.00
  0
VERTEX
  8
SHEET
 10
21625.00
 20
21600.00
 40
0.00
 41
0.00
  0
VERTEX
  8
SHEET
 10
21575.00
 20
21700.00
  0
VERTEX
  8
SHEET
 10
21575.00
 20
21700.00
 40
0.00
 41
0.00
  0
VERTEX
  8
SHEET
 10
21525.00
 20
21600.00
  0
VERTEX
  8
SHEET
 10
21525.00
 20
21600.00
 40
0.00
 41
0.00
  0
VERTEX
  8
SHEET
 10
21500.00
 20
21650.00
  0
VERTEX
  8
SHEET
 10
21500.00
 20
21650.00
 40
0.00
 41
0.00
  0
VERTEX
  8
SHEET
 10
21400.00
 20
21650.00
 40
0.00
 41
0.00
  0
VERTEX
  8
SHEET
 10
21400.00
 20
21650.00
  0
SEQEND
  8
SHEET
  0
TEXT
  8
SHEET
 62
     5
 10
21575.00
 20
21525.00
 40
50.00
  1
R4
  0
TEXT
  8
SHEET
 62
     5
 10
21575.00
 20
21465.00
 40
50.00
  1
470K
  0
INSERT
  8
SHEET
  2
2
 10
23750.00
 20
23050.00
 50
270.000
  0
INSERT
  8
SHEET
  2
2
 10
24250.00
 20
23050.00
 50
270.000
  0
POLYLINE
  8
SHEET
 66
     1
 10
0.00
 20
0.00
 40
0.00
 41
0.00
  0
VERTEX
  8
SHEET
 10
24250.00
 20
23050.00
 40
0.00
 41
0.00
  0
VERTEX
  8
SHEET
 10
24150.00
 20
23050.00
  0
VERTEX
  8
SHEET
 10
24150.00
 20
23050.00
 40
0.00
 41
0.00
  0
VERTEX
  8
SHEET
 10
24125.00
 20
23100.00
  0
VERTEX
  8
SHEET
 10
24125.00
 20
23100.00
 40
0.00
 41
0.00
  0
VERTEX
  8
SHEET
 10
24075.00
 20
23000.00
  0
VERTEX
  8
SHEET
 10
24075.00
 20
23000.00
 40
0.00
 41
0.00
  0
VERTEX
  8
SHEET
 10
24025.00
 20
23100.00
  0
VERTEX
  8
SHEET
 10
24025.00
 20
23100.00
 40
0.00
 41
0.00
  0
VERTEX
  8
SHEET
 10
23975.00
 20
23000.00
  0
VERTEX
  8
SHEET
 10
23975.00
 20
23000.00
 40
0.00
 41
0.00
  0
VERTEX
  8
SHEET
 10
23925.00
 20
23100.00
  0
VERTEX
  8
SHEET
 10
23925.00
 20
23100.00
 40
0.00
 41
0.00
  0
VERTEX
  8
SHEET
 10
23875.00
 20
23000.00
  0
VERTEX
  8
SHEET
 10
23875.00
 20
23000.00
 40
0.00
 41
0.00
  0
VERTEX
  8
SHEET
 10
23850.00
 20
23050.00
  0
VERTEX
  8
SHEET
 10
23850.00
 20
23050.00
 40
0.00
 41
0.00
  0
VERTEX
  8
SHEET
 10
23750.00
 20
23050.00
 40
0.00
 41
0.00
  0
VERTEX
  8
SHEET
 10
23750.00
 20
23050.00
  0
SEQEND
  8
SHEET
  0
TEXT
  8
SHEET
 62
     5
 10
23925.00
 20
22925.00
 40
50.00
  1
R5
  0
TEXT
  8
SHEET
 62
     5
 10
23925.00
 20
22865.00
 40
50.00
  1
1M
  0
INSERT
  8
SHEET
  2
2
 10
22700.00
 20
23050.00
 50
270.000
  0
INSERT
  8
SHEET
  2
2
 10
23200.00
 20
23050.00
 50
270.000
  0
POLYLINE
  8
SHEET
 66
     1
 10
0.00
 20
0.00
 40
0.00
 41
0.00
  0
VERTEX
  8
SHEET
 10
23200.00
 20
23050.00
 40
0.00
 41
0.00
  0
VERTEX
  8
SHEET
 10
23100.00
 20
23050.00
  0
VERTEX
  8
SHEET
 10
23100.00
 20
23050.00
 40
0.00
 41
0.00
  0
VERTEX
  8
SHEET
 10
23075.00
 20
23100.00
  0
VERTEX
  8
SHEET
 10
23075.00
 20
23100.00
 40
0.00
 41
0.00
  0
VERTEX
  8
SHEET
 10
23025.00
 20
23000.00
  0
VERTEX
  8
SHEET
 10
23025.00
 20
23000.00
 40
0.00
 41
0.00
  0
VERTEX
  8
SHEET
 10
22975.00
 20
23100.00
  0
VERTEX
  8
SHEET
 10
22975.00
 20
23100.00
 40
0.00
 41
0.00
  0
VERTEX
  8
SHEET
 10
22925.00
 20
23000.00
  0
VERTEX
  8
SHEET
 10
22925.00
 20
23000.00
 40
0.00
 41
0.00
  0
VERTEX
  8
SHEET
 10
22875.00
 20
23100.00
  0
VERTEX
  8
SHEET
 10
22875.00
 20
23100.00
 40
0.00
 41
0.00
  0
VERTEX
  8
SHEET
 10
22825.00
 20
23000.00
  0
VERTEX
  8
SHEET
 10
22825.00
 20
23000.00
 40
0.00
 41
0.00
  0
VERTEX
  8
SHEET
 10
22800.00
 20
23050.00
  0
VERTEX
  8
SHEET
 10
22800.00
 20
23050.00
 40
0.00
 41
0.00
  0
VERTEX
  8
SHEET
 10
22700.00
 20
23050.00
 40
0.00
 41
0.00
  0
VERTEX
  8
SHEET
 10
22700.00
 20
23050.00
  0
SEQEND
  8
SHEET
  0
TEXT
  8
SHEET
 62
     5
 10
22875.00
 20
22925.00
 40
50.00
  1
R6
  0
TEXT
  8
SHEET
 62
     5
 10
22875.00
 20
22865.00
 40
50.00
  1
10K
  0
INSERT
  8
SHEET
  2
2
 10
21500.00
 20
20650.00
 50
270.000
  0
INSERT
  8
SHEET
  2
2
 10
22000.00
 20
20650.00
 50
270.000
  0
POLYLINE
  8
SHEET
 66
     1
 10
0.00
 20
0.00
 40
0.00
 41
0.00
  0
VERTEX
  8
SHEET
 10
22000.00
 20
20650.00
 40
0.00
 41
0.00
  0
VERTEX
  8
SHEET
 10
21900.00
 20
20650.00
  0
VERTEX
  8
SHEET
 10
21900.00
 20
20650.00
 40
0.00
 41
0.00
  0
VERTEX
  8
SHEET
 10
21875.00
 20
20700.00
  0
VERTEX
  8
SHEET
 10
21875.00
 20
20700.00
 40
0.00
 41
0.00
  0
VERTEX
  8
SHEET
 10
21825.00
 20
20600.00
  0
VERTEX
  8
SHEET
 10
21825.00
 20
20600.00
 40
0.00
 41
0.00
  0
VERTEX
  8
SHEET
 10
21775.00
 20
20700.00
  0
VERTEX
  8
SHEET
 10
21775.00
 20
20700.00
 40
0.00
 41
0.00
  0
VERTEX
  8
SHEET
 10
21725.00
 20
20600.00
  0
VERTEX
  8
SHEET
 10
21725.00
 20
20600.00
 40
0.00
 41
0.00
  0
VERTEX
  8
SHEET
 10
21675.00
 20
20700.00
  0
VERTEX
  8
SHEET
 10
21675.00
 20
20700.00
 40
0.00
 41
0.00
  0
VERTEX
  8
SHEET
 10
21625.00
 20
20600.00
  0
VERTEX
  8
SHEET
 10
21625.00
 20
20600.00
 40
0.00
 41
0.00
  0
VERTEX
  8
SHEET
 10
21600.00
 20
20650.00
  0
VERTEX
  8
SHEET
 10
21600.00
 20
20650.00
 40
0.00
 41
0.00
  0
VERTEX
  8
SHEET
 10
21500.00
 20
20650.00
 40
0.00
 41
0.00
  0
VERTEX
  8
SHEET
 10
21500.00
 20
20650.00
  0
SEQEND
  8
SHEET
  0
TEXT
  8
SHEET
 62
     5
 10
21675.00
 20
20525.00
 40
50.00
  1
R7
  0
TEXT
  8
SHEET
 62
     5
 10
21675.00
 20
20465.00
 40
50.00
  1
470K
  0
INSERT
  8
SHEET
  2
2
 10
22000.00
 20
20250.00
 50
270.000
  0
INSERT
  8
SHEET
  2
2
 10
22500.00
 20
20250.00
 50
270.000
  0
POLYLINE
  8
SHEET
 66
     1
 10
0.00
 20
0.00
 40
0.00
 41
0.00
  0
VERTEX
  8
SHEET
 10
22500.00
 20
20250.00
 40
0.00
 41
0.00
  0
VERTEX
  8
SHEET
 10
22400.00
 20
20250.00
  0
VERTEX
  8
SHEET
 10
22400.00
 20
20250.00
 40
0.00
 41
0.00
  0
VERTEX
  8
SHEET
 10
22375.00
 20
20300.00
  0
VERTEX
  8
SHEET
 10
22375.00
 20
20300.00
 40
0.00
 41
0.00
  0
VERTEX
  8
SHEET
 10
22325.00
 20
20200.00
  0
VERTEX
  8
SHEET
 10
22325.00
 20
20200.00
 40
0.00
 41
0.00
  0
VERTEX
  8
SHEET
 10
22275.00
 20
20300.00
  0
VERTEX
  8
SHEET
 10
22275.00
 20
20300.00
 40
0.00
 41
0.00
  0
VERTEX
  8
SHEET
 10
22225.00
 20
20200.00
  0
VERTEX
  8
SHEET
 10
22225.00
 20
20200.00
 40
0.00
 41
0.00
  0
VERTEX
  8
SHEET
 10
22175.00
 20
20300.00
  0
VERTEX
  8
SHEET
 10
22175.00
 20
20300.00
 40
0.00
 41
0.00
  0
VERTEX
  8
SHEET
 10
22125.00
 20
20200.00
  0
VERTEX
  8
SHEET
 10
22125.00
 20
20200.00
 40
0.00
 41
0.00
  0
VERTEX
  8
SHEET
 10
22100.00
 20
20250.00
  0
VERTEX
  8
SHEET
 10
22100.00
 20
20250.00
 40
0.00
 41
0.00
  0
VERTEX
  8
SHEET
 10
22000.00
 20
20250.00
 40
0.00
 41
0.00
  0
VERTEX
  8
SHEET
 10
22000.00
 20
20250.00
  0
SEQEND
  8
SHEET
  0
TEXT
  8
SHEET
 62
     5
 10
22175.00
 20
20125.00
 40
50.00
  1
R8
  0
TEXT
  8
SHEET
 62
     5
 10
22175.00
 20
20065.00
 40
50.00
  1
330
  0
INSERT
  8
SHEET
  2
2
 10
22650.00
 20
25050.00
 50
270.000
  0
INSERT
  8
SHEET
  2
2
 10
23150.00
 20
25050.00
 50
270.000
  0
POLYLINE
  8
SHEET
 66
     1
 10
0.00
 20
0.00
 40
0.00
 41
0.00
  0
VERTEX
  8
SHEET
 10
23150.00
 20
25050.00
 40
0.00
 41
0.00
  0
VERTEX
  8
SHEET
 10
23050.00
 20
25050.00
  0
VERTEX
  8
SHEET
 10
23050.00
 20
25050.00
 40
0.00
 41
0.00
  0
VERTEX
  8
SHEET
 10
23025.00
 20
25100.00
  0
VERTEX
  8
SHEET
 10
23025.00
 20
25100.00
 40
0.00
 41
0.00
  0
VERTEX
  8
SHEET
 10
22975.00
 20
25000.00
  0
VERTEX
  8
SHEET
 10
22975.00
 20
25000.00
 40
0.00
 41
0.00
  0
VERTEX
  8
SHEET
 10
22925.00
 20
25100.00
  0
VERTEX
  8
SHEET
 10
22925.00
 20
25100.00
 40
0.00
 41
0.00
  0
VERTEX
  8
SHEET
 10
22875.00
 20
25000.00
  0
VERTEX
  8
SHEET
 10
22875.00
 20
25000.00
 40
0.00
 41
0.00
  0
VERTEX
  8
SHEET
 10
22825.00
 20
25100.00
  0
VERTEX
  8
SHEET
 10
22825.00
 20
25100.00
 40
0.00
 41
0.00
  0
VERTEX
  8
SHEET
 10
22775.00
 20
25000.00
  0
VERTEX
  8
SHEET
 10
22775.00
 20
25000.00
 40
0.00
 41
0.00
  0
VERTEX
  8
SHEET
 10
22750.00
 20
25050.00
  0
VERTEX
  8
SHEET
 10
22750.00
 20
25050.00
 40
0.00
 41
0.00
  0
VERTEX
  8
SHEET
 10
22650.00
 20
25050.00
 40
0.00
 41
0.00
  0
VERTEX
  8
SHEET
 10
22650.00
 20
25050.00
  0
SEQEND
  8
SHEET
  0
TEXT
  8
SHEET
 62
     5
 10
22825.00
 20
24925.00
 40
50.00
  1
R9
  0
TEXT
  8
SHEET
 62
     5
 10
22825.00
 20
24865.00
 40
50.00
  1
10K
  0
INSERT
  8
SHEET
  2
2
 10
23650.00
 20
25050.00
 50
270.000
  0
INSERT
  8
SHEET
  2
2
 10
24150.00
 20
25050.00
 50
270.000
  0
POLYLINE
  8
SHEET
 66
     1
 10
0.00
 20
0.00
 40
0.00
 41
0.00
  0
VERTEX
  8
SHEET
 10
24150.00
 20
25050.00
 40
0.00
 41
0.00
  0
VERTEX
  8
SHEET
 10
24050.00
 20
25050.00
  0
VERTEX
  8
SHEET
 10
24050.00
 20
25050.00
 40
0.00
 41
0.00
  0
VERTEX
  8
SHEET
 10
24025.00
 20
25100.00
  0
VERTEX
  8
SHEET
 10
24025.00
 20
25100.00
 40
0.00
 41
0.00
  0
VERTEX
  8
SHEET
 10
23975.00
 20
25000.00
  0
VERTEX
  8
SHEET
 10
23975.00
 20
25000.00
 40
0.00
 41
0.00
  0
VERTEX
  8
SHEET
 10
23925.00
 20
25100.00
  0
VERTEX
  8
SHEET
 10
23925.00
 20
25100.00
 40
0.00
 41
0.00
  0
VERTEX
  8
SHEET
 10
23875.00
 20
25000.00
  0
VERTEX
  8
SHEET
 10
23875.00
 20
25000.00
 40
0.00
 41
0.00
  0
VERTEX
  8
SHEET
 10
23825.00
 20
25100.00
  0
VERTEX
  8
SHEET
 10
23825.00
 20
25100.00
 40
0.00
 41
0.00
  0
VERTEX
  8
SHEET
 10
23775.00
 20
25000.00
  0
VERTEX
  8
SHEET
 10
23775.00
 20
25000.00
 40
0.00
 41
0.00
  0
VERTEX
  8
SHEET
 10
23750.00
 20
25050.00
  0
VERTEX
  8
SHEET
 10
23750.00
 20
25050.00
 40
0.00
 41
0.00
  0
VERTEX
  8
SHEET
 10
23650.00
 20
25050.00
 40
0.00
 41
0.00
  0
VERTEX
  8
SHEET
 10
23650.00
 20
25050.00
  0
SEQEND
  8
SHEET
  0
TEXT
  8
SHEET
 62
     5
 10
23825.00
 20
24925.00
 40
50.00
  1
R10
  0
TEXT
  8
SHEET
 62
     5
 10
23825.00
 20
24865.00
 40
50.00
  1
1M
  0
INSERT
  8
SHEET
  2
2
 10
24500.00
 20
25750.00
 50
270.000
  0
INSERT
  8
SHEET
  2
2
 10
25000.00
 20
25750.00
 50
270.000
  0
POLYLINE
  8
SHEET
 66
     1
 10
0.00
 20
0.00
 40
0.00
 41
0.00
  0
VERTEX
  8
SHEET
 10
25000.00
 20
25750.00
 40
0.00
 41
0.00
  0
VERTEX
  8
SHEET
 10
24900.00
 20
25750.00
  0
VERTEX
  8
SHEET
 10
24900.00
 20
25750.00
 40
0.00
 41
0.00
  0
VERTEX
  8
SHEET
 10
24875.00
 20
25800.00
  0
VERTEX
  8
SHEET
 10
24875.00
 20
25800.00
 40
0.00
 41
0.00
  0
VERTEX
  8
SHEET
 10
24825.00
 20
25700.00
  0
VERTEX
  8
SHEET
 10
24825.00
 20
25700.00
 40
0.00
 41
0.00
  0
VERTEX
  8
SHEET
 10
24775.00
 20
25800.00
  0
VERTEX
  8
SHEET
 10
24775.00
 20
25800.00
 40
0.00
 41
0.00
  0
VERTEX
  8
SHEET
 10
24725.00
 20
25700.00
  0
VERTEX
  8
SHEET
 10
24725.00
 20
25700.00
 40
0.00
 41
0.00
  0
VERTEX
  8
SHEET
 10
24675.00
 20
25800.00
  0
VERTEX
  8
SHEET
 10
24675.00
 20
25800.00
 40
0.00
 41
0.00
  0
VERTEX
  8
SHEET
 10
24625.00
 20
25700.00
  0
VERTEX
  8
SHEET
 10
24625.00
 20
25700.00
 40
0.00
 41
0.00
  0
VERTEX
  8
SHEET
 10
24600.00
 20
25750.00
  0
VERTEX
  8
SHEET
 10
24600.00
 20
25750.00
 40
0.00
 41
0.00
  0
VERTEX
  8
SHEET
 10
24500.00
 20
25750.00
 40
0.00
 41
0.00
  0
VERTEX
  8
SHEET
 10
24500.00
 20
25750.00
  0
SEQEND
  8
SHEET
  0
TEXT
  8
SHEET
 62
     5
 10
24675.00
 20
25625.00
 40
50.00
  1
R11
  0
TEXT
  8
SHEET
 62
     5
 10
24675.00
 20
25565.00
 40
50.00
  1
5.6K
  0
INSERT
  8
SHEET
  2
2
 10
24550.00
 20
23950.00
 50
270.000
  0
TEXT
  8
SHEET
 62
    145
 10
24575.00
 20
23975.00
 40
50.00
  1
1
 72
     2
 11
24625.00
 21
23975.00
  0
INSERT
  8
SHEET
  2
2
 10
25050.00
 20
23950.00
 50
270.000
  0
TEXT
  8
SHEET
 62
    145
 10
24975.00
 20
23975.00
 40
50.00
  1
2
  0
POLYLINE
  8
SHEET
 66
     1
 10
0.00
 20
0.00
 40
0.00
 41
0.00
  0
VERTEX
  8
SHEET
 10
25050.00
 20
23950.00
 40
0.00
 41
0.00
  0
VERTEX
  8
SHEET
 10
24950.00
 20
23950.00
  0
VERTEX
  8
SHEET
 10
24950.00
 20
23950.00
 40
0.00
 41
0.00
  0
VERTEX
  8
SHEET
 10
24925.00
 20
24000.00
  0
VERTEX
  8
SHEET
 10
24925.00
 20
24000.00
 40
0.00
 41
0.00
  0
VERTEX
  8
SHEET
 10
24875.00
 20
23900.00
  0
VERTEX
  8
SHEET
 10
24875.00
 20
23900.00
 40
0.00
 41
0.00
  0
VERTEX
  8
SHEET
 10
24825.00
 20
24000.00
  0
VERTEX
  8
SHEET
 10
24825.00
 20
24000.00
 40
0.00
 41
0.00
  0
VERTEX
  8
SHEET
 10
24775.00
 20
23900.00
  0
VERTEX
  8
SHEET
 10
24775.00
 20
23900.00
 40
0.00
 41
0.00
  0
VERTEX
  8
SHEET
 10
24725.00
 20
24000.00
  0
VERTEX
  8
SHEET
 10
24725.00
 20
24000.00
 40
0.00
 41
0.00
  0
VERTEX
  8
SHEET
 10
24675.00
 20
23900.00
  0
VERTEX
  8
SHEET
 10
24675.00
 20
23900.00
 40
0.00
 41
0.00
  0
VERTEX
  8
SHEET
 10
24650.00
 20
23950.00
  0
VERTEX
  8
SHEET
 10
24650.00
 20
23950.00
 40
0.00
 41
0.00
  0
VERTEX
  8
SHEET
 10
24550.00
 20
23950.00
 40
0.00
 41
0.00
  0
VERTEX
  8
SHEET
 10
24550.00
 20
23950.00
  0
SEQEND
  8
SHEET
  0
TEXT
  8
SHEET
 62
     5
 10
24725.00
 20
23825.00
 40
50.00
  1
R12
  0
TEXT
  8
SHEET
 62
     5
 10
24725.00
 20
23765.00
 40
50.00
  1
5.6K
  0
INSERT
  8
SHEET
  2
2
 10
20150.00
 20
25150.00
  0
INSERT
  8
SHEET
  2
2
 10
20150.00
 20
25650.00
  0
POLYLINE
  8
SHEET
 66
     1
 10
0.00
 20
0.00
 40
0.00
 41
0.00
  0
VERTEX
  8
SHEET
 10
20150.00
 20
25650.00
 40
0.00
 41
0.00
  0
VERTEX
  8
SHEET
 10
20150.00
 20
25550.00
  0
VERTEX
  8
SHEET
 10
20150.00
 20
25550.00
 40
0.00
 41
0.00
  0
VERTEX
  8
SHEET
 10
20100.00
 20
25525.00
  0
VERTEX
  8
SHEET
 10
20100.00
 20
25525.00
 40
0.00
 41
0.00
  0
VERTEX
  8
SHEET
 10
20200.00
 20
25475.00
  0
VERTEX
  8
SHEET
 10
20200.00
 20
25475.00
 40
0.00
 41
0.00
  0
VERTEX
  8
SHEET
 10
20100.00
 20
25425.00
  0
VERTEX
  8
SHEET
 10
20100.00
 20
25425.00
 40
0.00
 41
0.00
  0
VERTEX
  8
SHEET
 10
20200.00
 20
25375.00
  0
VERTEX
  8
SHEET
 10
20200.00
 20
25375.00
 40
0.00
 41
0.00
  0
VERTEX
  8
SHEET
 10
20100.00
 20
25325.00
  0
VERTEX
  8
SHEET
 10
20100.00
 20
25325.00
 40
0.00
 41
0.00
  0
VERTEX
  8
SHEET
 10
20200.00
 20
25275.00
  0
VERTEX
  8
SHEET
 10
20200.00
 20
25275.00
 40
0.00
 41
0.00
  0
VERTEX
  8
SHEET
 10
20150.00
 20
25250.00
  0
VERTEX
  8
SHEET
 10
20150.00
 20
25250.00
 40
0.00
 41
0.00
  0
VERTEX
  8
SHEET
 10
20150.00
 20
25150.00
 40
0.00
 41
0.00
  0
VERTEX
  8
SHEET
 10
20150.00
 20
25150.00
  0
SEQEND
  8
SHEET
  0
TEXT
  8
SHEET
 62
     5
 10
20275.00
 20
25325.00
 40
50.00
  1
R13
 50
90.000
  0
TEXT
  8
SHEET
 62
     5
 10
20335.00
 20
25325.00
 40
50.00
  1
2M  3W
 50
90.000
  0
TEXT
  8
SHEET
 62
     5
 10
20395.00
 20
25325.00
 40
50.00
  1
HV TYPE
 50
90.000
  0
INSERT
  8
SHEET
  2
2
 10
20150.00
 20
24500.00
  0
INSERT
  8
SHEET
  2
2
 10
20150.00
 20
25000.00
  0
POLYLINE
  8
SHEET
 66
     1
 10
0.00
 20
0.00
 40
0.00
 41
0.00
  0
VERTEX
  8
SHEET
 10
20150.00
 20
25000.00
 40
0.00
 41
0.00
  0
VERTEX
  8
SHEET
 10
20150.00
 20
24900.00
  0
VERTEX
  8
SHEET
 10
20150.00
 20
24900.00
 40
0.00
 41
0.00
  0
VERTEX
  8
SHEET
 10
20100.00
 20
24875.00
  0
VERTEX
  8
SHEET
 10
20100.00
 20
24875.00
 40
0.00
 41
0.00
  0
VERTEX
  8
SHEET
 10
20200.00
 20
24825.00
  0
VERTEX
  8
SHEET
 10
20200.00
 20
24825.00
 40
0.00
 41
0.00
  0
VERTEX
  8
SHEET
 10
20100.00
 20
24775.00
  0
VERTEX
  8
SHEET
 10
20100.00
 20
24775.00
 40
0.00
 41
0.00
  0
VERTEX
  8
SHEET
 10
20200.00
 20
24725.00
  0
VERTEX
  8
SHEET
 10
20200.00
 20
24725.00
 40
0.00
 41
0.00
  0
VERTEX
  8
SHEET
 10
20100.00
 20
24675.00
  0
VERTEX
  8
SHEET
 10
20100.00
 20
24675.00
 40
0.00
 41
0.00
  0
VERTEX
  8
SHEET
 10
20200.00
 20
24625.00
  0
VERTEX
  8
SHEET
 10
20200.00
 20
24625.00
 40
0.00
 41
0.00
  0
VERTEX
  8
SHEET
 10
20150.00
 20
24600.00
  0
VERTEX
  8
SHEET
 10
20150.00
 20
24600.00
 40
0.00
 41
0.00
  0
VERTEX
  8
SHEET
 10
20150.00
 20
24500.00
 40
0.00
 41
0.00
  0
VERTEX
  8
SHEET
 10
20150.00
 20
24500.00
  0
SEQEND
  8
SHEET
  0
TEXT
  8
SHEET
 62
     5
 10
20275.00
 20
24675.00
 40
50.00
  1
R14
 50
90.000
  0
TEXT
  8
SHEET
 62
     5
 10
20335.00
 20
24675.00
 40
50.00
  1
21K
 50
90.000
  0
INSERT
  8
SHEET
  2
2
 10
19900.00
 20
23200.00
  0
INSERT
  8
SHEET
  2
2
 10
19900.00
 20
23700.00
  0
POLYLINE
  8
SHEET
 66
     1
 10
0.00
 20
0.00
 40
0.00
 41
0.00
  0
VERTEX
  8
SHEET
 10
19900.00
 20
23700.00
 40
0.00
 41
0.00
  0
VERTEX
  8
SHEET
 10
19900.00
 20
23600.00
  0
VERTEX
  8
SHEET
 10
19900.00
 20
23600.00
 40
0.00
 41
0.00
  0
VERTEX
  8
SHEET
 10
19850.00
 20
23575.00
  0
VERTEX
  8
SHEET
 10
19850.00
 20
23575.00
 40
0.00
 41
0.00
  0
VERTEX
  8
SHEET
 10
19950.00
 20
23525.00
  0
VERTEX
  8
SHEET
 10
19950.00
 20
23525.00
 40
0.00
 41
0.00
  0
VERTEX
  8
SHEET
 10
19850.00
 20
23475.00
  0
VERTEX
  8
SHEET
 10
19850.00
 20
23475.00
 40
0.00
 41
0.00
  0
VERTEX
  8
SHEET
 10
19950.00
 20
23425.00
  0
VERTEX
  8
SHEET
 10
19950.00
 20
23425.00
 40
0.00
 41
0.00
  0
VERTEX
  8
SHEET
 10
19850.00
 20
23375.00
  0
VERTEX
  8
SHEET
 10
19850.00
 20
23375.00
 40
0.00
 41
0.00
  0
VERTEX
  8
SHEET
 10
19950.00
 20
23325.00
  0
VERTEX
  8
SHEET
 10
19950.00
 20
23325.00
 40
0.00
 41
0.00
  0
VERTEX
  8
SHEET
 10
19900.00
 20
23300.00
  0
VERTEX
  8
SHEET
 10
19900.00
 20
23300.00
 40
0.00
 41
0.00
  0
VERTEX
  8
SHEET
 10
19900.00
 20
23200.00
 40
0.00
 41
0.00
  0
VERTEX
  8
SHEET
 10
19900.00
 20
23200.00
  0
SEQEND
  8
SHEET
  0
TEXT
  8
SHEET
 62
     5
 10
20050.00
 20
23400.00
 40
50.00
  1
R15
 50
90.000
  0
TEXT
  8
SHEET
 62
     5
 10
20110.00
 20
23400.00
 40
50.00
  1
2M 3W
 50
90.000
  0
TEXT
  8
SHEET
 62
     5
 10
20170.00
 20
23400.00
 40
50.00
  1
HV TYPE
 50
90.000
  0
INSERT
  8
SHEET
  2
2
 10
19900.00
 20
22600.00
  0
INSERT
  8
SHEET
  2
2
 10
19900.00
 20
23100.00
  0
INSERT
  8
SHEET
  2
__JUNCTIONS__
 10
19900.00
 20
23100.00
  0
POLYLINE
  8
SHEET
 66
     1
 10
0.00
 20
0.00
 40
0.00
 41
0.00
  0
VERTEX
  8
SHEET
 10
19900.00
 20
23100.00
 40
0.00
 41
0.00
  0
VERTEX
  8
SHEET
 10
19900.00
 20
23000.00
  0
VERTEX
  8
SHEET
 10
19900.00
 20
23000.00
 40
0.00
 41
0.00
  0
VERTEX
  8
SHEET
 10
19850.00
 20
22975.00
  0
VERTEX
  8
SHEET
 10
19850.00
 20
22975.00
 40
0.00
 41
0.00
  0
VERTEX
  8
SHEET
 10
19950.00
 20
22925.00
  0
VERTEX
  8
SHEET
 10
19950.00
 20
22925.00
 40
0.00
 41
0.00
  0
VERTEX
  8
SHEET
 10
19850.00
 20
22875.00
  0
VERTEX
  8
SHEET
 10
19850.00
 20
22875.00
 40
0.00
 41
0.00
  0
VERTEX
  8
SHEET
 10
19950.00
 20
22825.00
  0
VERTEX
  8
SHEET
 10
19950.00
 20
22825.00
 40
0.00
 41
0.00
  0
VERTEX
  8
SHEET
 10
19850.00
 20
22775.00
  0
VERTEX
  8
SHEET
 10
19850.00
 20
22775.00
 40
0.00
 41
0.00
  0
VERTEX
  8
SHEET
 10
19950.00
 20
22725.00
  0
VERTEX
  8
SHEET
 10
19950.00
 20
22725.00
 40
0.00
 41
0.00
  0
VERTEX
  8
SHEET
 10
19900.00
 20
22700.00
  0
VERTEX
  8
SHEET
 10
19900.00
 20
22700.00
 40
0.00
 41
0.00
  0
VERTEX
  8
SHEET
 10
19900.00
 20
22600.00
 40
0.00
 41
0.00
  0
VERTEX
  8
SHEET
 10
19900.00
 20
22600.00
  0
SEQEND
  8
SHEET
  0
TEXT
  8
SHEET
 62
     5
 10
20025.00
 20
22775.00
 40
50.00
  1
R16
 50
90.000
  0
TEXT
  8
SHEET
 62
     5
 10
20085.00
 20
22775.00
 40
50.00
  1
21K
 50
90.000
  0
INSERT
  8
SHEET
  2
2
 10
22900.00
 20
21200.00
  0
INSERT
  8
SHEET
  2
2
 10
22900.00
 20
21550.00
  0
POLYLINE
  8
SHEET
 66
     1
 10
0.00
 20
0.00
 70
     1
 40
0.00
 41
0.00
  0
VERTEX
  8
SHEET
 10
23000.00
 20
21300.00
 40
0.00
 41
0.00
  0
VERTEX
  8
SHEET
 10
22800.00
 20
21300.00
  0
VERTEX
  8
SHEET
 10
22800.00
 20
21300.00
 40
0.00
 41
0.00
  0
VERTEX
  8
SHEET
 10
22900.00
 20
21450.00
  0
VERTEX
  8
SHEET
 10
22900.00
 20
21450.00
 40
0.00
 41
0.00
  0
VERTEX
  8
SHEET
 10
23000.00
 20
21300.00
 40
0.00
 41
0.00
  0
VERTEX
  8
SHEET
 10
23000.00
 20
21300.00
  0
SEQEND
  8
SHEET
  0
POLYLINE
  8
SHEET
 66
     1
 10
0.00
 20
0.00
 40
0.00
 41
0.00
  0
VERTEX
  8
SHEET
 10
22800.00
 20
21450.00
 40
0.00
 41
0.00
  0
VERTEX
  8
SHEET
 10
23000.00
 20
21450.00
 40
0.00
 41
0.00
  0
VERTEX
  8
SHEET
 10
23000.00
 20
21450.00
  0
SEQEND
  8
SHEET
  0
POLYLINE
  8
SHEET
 66
     1
 10
0.00
 20
0.00
 40
0.00
 41
0.00
  0
VERTEX
  8
SHEET
 10
22900.00
 20
21200.00
 40
0.00
 41
0.00
  0
VERTEX
  8
SHEET
 10
22900.00
 20
21300.00
 40
0.00
 41
0.00
  0
VERTEX
  8
SHEET
 10
22900.00
 20
21300.00
  0
SEQEND
  8
SHEET
  0
POLYLINE
  8
SHEET
 66
     1
 10
0.00
 20
0.00
 40
0.00
 41
0.00
  0
VERTEX
  8
SHEET
 10
22900.00
 20
21450.00
 40
0.00
 41
0.00
  0
VERTEX
  8
SHEET
 10
22900.00
 20
21550.00
 40
0.00
 41
0.00
  0
VERTEX
  8
SHEET
 10
22900.00
 20
21550.00
  0
SEQEND
  8
SHEET
  0
TEXT
  8
SHEET
 62
     5
 10
23100.00
 20
21250.00
 40
50.00
  1
D3
 50
90.000
  0
INSERT
  8
SHEET
  2
2
 10
23000.00
 20
20200.00
  0
INSERT
  8
SHEET
  2
2
 10
23000.00
 20
20550.00
  0
POLYLINE
  8
SHEET
 66
     1
 10
0.00
 20
0.00
 70
     1
 40
0.00
 41
0.00
  0
VERTEX
  8
SHEET
 10
23100.00
 20
20300.00
 40
0.00
 41
0.00
  0
VERTEX
  8
SHEET
 10
22900.00
 20
20300.00
  0
VERTEX
  8
SHEET
 10
22900.00
 20
20300.00
 40
0.00
 41
0.00
  0
VERTEX
  8
SHEET
 10
23000.00
 20
20450.00
  0
VERTEX
  8
SHEET
 10
23000.00
 20
20450.00
 40
0.00
 41
0.00
  0
VERTEX
  8
SHEET
 10
23100.00
 20
20300.00
 40
0.00
 41
0.00
  0
VERTEX
  8
SHEET
 10
23100.00
 20
20300.00
  0
SEQEND
  8
SHEET
  0
POLYLINE
  8
SHEET
 66
     1
 10
0.00
 20
0.00
 40
0.00
 41
0.00
  0
VERTEX
  8
SHEET
 10
22900.00
 20
20450.00
 40
0.00
 41
0.00
  0
VERTEX
  8
SHEET
 10
23100.00
 20
20450.00
 40
0.00
 41
0.00
  0
VERTEX
  8
SHEET
 10
23100.00
 20
20450.00
  0
SEQEND
  8
SHEET
  0
POLYLINE
  8
SHEET
 66
     1
 10
0.00
 20
0.00
 40
0.00
 41
0.00
  0
VERTEX
  8
SHEET
 10
23000.00
 20
20200.00
 40
0.00
 41
0.00
  0
VERTEX
  8
SHEET
 10
23000.00
 20
20300.00
 40
0.00
 41
0.00
  0
VERTEX
  8
SHEET
 10
23000.00
 20
20300.00
  0
SEQEND
  8
SHEET
  0
POLYLINE
  8
SHEET
 66
     1
 10
0.00
 20
0.00
 40
0.00
 41
0.00
  0
VERTEX
  8
SHEET
 10
23000.00
 20
20450.00
 40
0.00
 41
0.00
  0
VERTEX
  8
SHEET
 10
23000.00
 20
20550.00
 40
0.00
 41
0.00
  0
VERTEX
  8
SHEET
 10
23000.00
 20
20550.00
  0
SEQEND
  8
SHEET
  0
TEXT
  8
SHEET
 62
     5
 10
23200.00
 20
20250.00
 40
50.00
  1
D4
 50
90.000
  0
INSERT
  8
SHEET
  2
2
 10
18850.00
 20
22950.00
  0
INSERT
  8
SHEET
  2
2
 10
18850.00
 20
23300.00
  0
POLYLINE
  8
SHEET
 66
     1
 10
0.00
 20
0.00
 70
     1
 40
0.00
 41
0.00
  0
VERTEX
  8
SHEET
 10
18950.00
 20
23050.00
 40
0.00
 41
0.00
  0
VERTEX
  8
SHEET
 10
18750.00
 20
23050.00
  0
VERTEX
  8
SHEET
 10
18750.00
 20
23050.00
 40
0.00
 41
0.00
  0
VERTEX
  8
SHEET
 10
18850.00
 20
23200.00
  0
VERTEX
  8
SHEET
 10
18850.00
 20
23200.00
 40
0.00
 41
0.00
  0
VERTEX
  8
SHEET
 10
18950.00
 20
23050.00
 40
0.00
 41
0.00
  0
VERTEX
  8
SHEET
 10
18950.00
 20
23050.00
  0
SEQEND
  8
SHEET
  0
POLYLINE
  8
SHEET
 66
     1
 10
0.00
 20
0.00
 40
0.00
 41
0.00
  0
VERTEX
  8
SHEET
 10
18750.00
 20
23200.00
 40
0.00
 41
0.00
  0
VERTEX
  8
SHEET
 10
18950.00
 20
23200.00
 40
0.00
 41
0.00
  0
VERTEX
  8
SHEET
 10
18950.00
 20
23200.00
  0
SEQEND
  8
SHEET
  0
POLYLINE
  8
SHEET
 66
     1
 10
0.00
 20
0.00
 40
0.00
 41
0.00
  0
VERTEX
  8
SHEET
 10
18850.00
 20
22950.00
 40
0.00
 41
0.00
  0
VERTEX
  8
SHEET
 10
18850.00
 20
23050.00
 40
0.00
 41
0.00
  0
VERTEX
  8
SHEET
 10
18850.00
 20
23050.00
  0
SEQEND
  8
SHEET
  0
POLYLINE
  8
SHEET
 66
     1
 10
0.00
 20
0.00
 40
0.00
 41
0.00
  0
VERTEX
  8
SHEET
 10
18850.00
 20
23200.00
 40
0.00
 41
0.00
  0
VERTEX
  8
SHEET
 10
18850.00
 20
23300.00
 40
0.00
 41
0.00
  0
VERTEX
  8
SHEET
 10
18850.00
 20
23300.00
  0
SEQEND
  8
SHEET
  0
TEXT
  8
SHEET
 62
     5
 10
19075.00
 20
23075.00
 40
50.00
  1
D6
 50
90.000
  0
INSERT
  8
SHEET
  2
2
 10
18950.00
 20
23750.00
 50
270.000
  0
INSERT
  8
SHEET
  2
2
 10
19300.00
 20
23750.00
 50
270.000
  0
POLYLINE
  8
SHEET
 66
     1
 10
0.00
 20
0.00
 70
     1
 40
0.00
 41
0.00
  0
VERTEX
  8
SHEET
 10
19050.00
 20
23650.00
 40
0.00
 41
0.00
  0
VERTEX
  8
SHEET
 10
19050.00
 20
23850.00
  0
VERTEX
  8
SHEET
 10
19050.00
 20
23850.00
 40
0.00
 41
0.00
  0
VERTEX
  8
SHEET
 10
19200.00
 20
23750.00
  0
VERTEX
  8
SHEET
 10
19200.00
 20
23750.00
 40
0.00
 41
0.00
  0
VERTEX
  8
SHEET
 10
19050.00
 20
23650.00
 40
0.00
 41
0.00
  0
VERTEX
  8
SHEET
 10
19050.00
 20
23650.00
  0
SEQEND
  8
SHEET
  0
POLYLINE
  8
SHEET
 66
     1
 10
0.00
 20
0.00
 40
0.00
 41
0.00
  0
VERTEX
  8
SHEET
 10
19200.00
 20
23850.00
 40
0.00
 41
0.00
  0
VERTEX
  8
SHEET
 10
19200.00
 20
23650.00
 40
0.00
 41
0.00
  0
VERTEX
  8
SHEET
 10
19200.00
 20
23650.00
  0
SEQEND
  8
SHEET
  0
POLYLINE
  8
SHEET
 66
     1
 10
0.00
 20
0.00
 40
0.00
 41
0.00
  0
VERTEX
  8
SHEET
 10
18950.00
 20
23750.00
 40
0.00
 41
0.00
  0
VERTEX
  8
SHEET
 10
19050.00
 20
23750.00
 40
0.00
 41
0.00
  0
VERTEX
  8
SHEET
 10
19050.00
 20
23750.00
  0
SEQEND
  8
SHEET
  0
POLYLINE
  8
SHEET
 66
     1
 10
0.00
 20
0.00
 40
0.00
 41
0.00
  0
VERTEX
  8
SHEET
 10
19200.00
 20
23750.00
 40
0.00
 41
0.00
  0
VERTEX
  8
SHEET
 10
19300.00
 20
23750.00
 40
0.00
 41
0.00
  0
VERTEX
  8
SHEET
 10
19300.00
 20
23750.00
  0
SEQEND
  8
SHEET
  0
TEXT
  8
SHEET
 62
     5
 10
19075.00
 20
23525.00
 40
50.00
  1
D7
  0
INSERT
  8
SHEET
  2
2
 10
19200.00
 20
25750.00
 50
270.000
  0
INSERT
  8
SHEET
  2
2
 10
19550.00
 20
25750.00
 50
270.000
  0
POLYLINE
  8
SHEET
 66
     1
 10
0.00
 20
0.00
 70
     1
 40
0.00
 41
0.00
  0
VERTEX
  8
SHEET
 10
19300.00
 20
25650.00
 40
0.00
 41
0.00
  0
VERTEX
  8
SHEET
 10
19300.00
 20
25850.00
  0
VERTEX
  8
SHEET
 10
19300.00
 20
25850.00
 40
0.00
 41
0.00
  0
VERTEX
  8
SHEET
 10
19450.00
 20
25750.00
  0
VERTEX
  8
SHEET
 10
19450.00
 20
25750.00
 40
0.00
 41
0.00
  0
VERTEX
  8
SHEET
 10
19300.00
 20
25650.00
 40
0.00
 41
0.00
  0
VERTEX
  8
SHEET
 10
19300.00
 20
25650.00
  0
SEQEND
  8
SHEET
  0
POLYLINE
  8
SHEET
 66
     1
 10
0.00
 20
0.00
 40
0.00
 41
0.00
  0
VERTEX
  8
SHEET
 10
19450.00
 20
25850.00
 40
0.00
 41
0.00
  0
VERTEX
  8
SHEET
 10
19450.00
 20
25650.00
 40
0.00
 41
0.00
  0
VERTEX
  8
SHEET
 10
19450.00
 20
25650.00
  0
SEQEND
  8
SHEET
  0
POLYLINE
  8
SHEET
 66
     1
 10
0.00
 20
0.00
 40
0.00
 41
0.00
  0
VERTEX
  8
SHEET
 10
19200.00
 20
25750.00
 40
0.00
 41
0.00
  0
VERTEX
  8
SHEET
 10
19300.00
 20
25750.00
 40
0.00
 41
0.00
  0
VERTEX
  8
SHEET
 10
19300.00
 20
25750.00
  0
SEQEND
  8
SHEET
  0
POLYLINE
  8
SHEET
 66
     1
 10
0.00
 20
0.00
 40
0.00
 41
0.00
  0
VERTEX
  8
SHEET
 10
19450.00
 20
25750.00
 40
0.00
 41
0.00
  0
VERTEX
  8
SHEET
 10
19550.00
 20
25750.00
 40
0.00
 41
0.00
  0
VERTEX
  8
SHEET
 10
19550.00
 20
25750.00
  0
SEQEND
  8
SHEET
  0
TEXT
  8
SHEET
 62
     5
 10
19325.00
 20
25525.00
 40
50.00
  1
D8
  0
INSERT
  8
SHEET
  2
2
 10
19050.00
 20
24900.00
  0
INSERT
  8
SHEET
  2
2
 10
19050.00
 20
25250.00
  0
POLYLINE
  8
SHEET
 66
     1
 10
0.00
 20
0.00
 70
     1
 40
0.00
 41
0.00
  0
VERTEX
  8
SHEET
 10
19150.00
 20
25000.00
 40
0.00
 41
0.00
  0
VERTEX
  8
SHEET
 10
18950.00
 20
25000.00
  0
VERTEX
  8
SHEET
 10
18950.00
 20
25000.00
 40
0.00
 41
0.00
  0
VERTEX
  8
SHEET
 10
19050.00
 20
25150.00
  0
VERTEX
  8
SHEET
 10
19050.00
 20
25150.00
 40
0.00
 41
0.00
  0
VERTEX
  8
SHEET
 10
19150.00
 20
25000.00
 40
0.00
 41
0.00
  0
VERTEX
  8
SHEET
 10
19150.00
 20
25000.00
  0
SEQEND
  8
SHEET
  0
POLYLINE
  8
SHEET
 66
     1
 10
0.00
 20
0.00
 40
0.00
 41
0.00
  0
VERTEX
  8
SHEET
 10
18950.00
 20
25150.00
 40
0.00
 41
0.00
  0
VERTEX
  8
SHEET
 10
19150.00
 20
25150.00
 40
0.00
 41
0.00
  0
VERTEX
  8
SHEET
 10
19150.00
 20
25150.00
  0
SEQEND
  8
SHEET
  0
POLYLINE
  8
SHEET
 66
     1
 10
0.00
 20
0.00
 40
0.00
 41
0.00
  0
VERTEX
  8
SHEET
 10
19050.00
 20
24900.00
 40
0.00
 41
0.00
  0
VERTEX
  8
SHEET
 10
19050.00
 20
25000.00
 40
0.00
 41
0.00
  0
VERTEX
  8
SHEET
 10
19050.00
 20
25000.00
  0
SEQEND
  8
SHEET
  0
POLYLINE
  8
SHEET
 66
     1
 10
0.00
 20
0.00
 40
0.00
 41
0.00
  0
VERTEX
  8
SHEET
 10
19050.00
 20
25150.00
 40
0.00
 41
0.00
  0
VERTEX
  8
SHEET
 10
19050.00
 20
25250.00
 40
0.00
 41
0.00
  0
VERTEX
  8
SHEET
 10
19050.00
 20
25250.00
  0
SEQEND
  8
SHEET
  0
TEXT
  8
SHEET
 62
     5
 10
19275.00
 20
25025.00
 40
50.00
  1
D9
 50
90.000
  0
INSERT
  8
SHEET
  2
2
 10
16000.00
 20
26750.00
 50
270.000
  0
TEXT
  8
SHEET
 62
    54
 10
15975.00
 20
26675.00
 40
50.00
  1
A
 72
     2
 11
16025.00
 21
26675.00
  0
TEXT
  8
SHEET
 62
    145
 10
15975.00
 20
26775.00
 40
50.00
  1
1
 72
     2
 11
16025.00
 21
26775.00
  0
INSERT
  8
SHEET
  2
2
 10
16400.00
 20
26750.00
 50
270.000
  0
TEXT
  8
SHEET
 62
    54
 10
16375.00
 20
26675.00
 40
50.00
  1
B
  0
TEXT
  8
SHEET
 62
    145
 10
16375.00
 20
26775.00
 40
50.00
  1
4
  0
POLYLINE
  8
SHEET
 66
     1
 10
0.00
 20
0.00
 40
0.00
 41
0.00
  0
VERTEX
  8
SHEET
 10
16000.00
 20
26750.00
 40
0.00
 41
0.00
  0
VERTEX
  8
SHEET
 10
16050.00
 20
26750.00
  0
VERTEX
  8
SHEET
 10
16050.00
 20
26750.00
 40
0.00
 41
0.00
 42
-0.414
  0
VERTEX
  8
SHEET
 10
16075.00
 20
26775.00
  0
VERTEX
  8
SHEET
 10
16075.00
 20
26775.00
 40
0.00
 41
0.00
 42
-0.414
  0
VERTEX
  8
SHEET
 10
16100.00
 20
26750.00
  0
VERTEX
  8
SHEET
 10
16100.00
 20
26750.00
 40
0.00
 41
0.00
 42
-0.414
  0
VERTEX
  8
SHEET
 10
16075.00
 20
26725.00
  0
VERTEX
  8
SHEET
 10
16075.00
 20
26725.00
 40
0.00
 41
0.00
 42
-0.414
  0
VERTEX
  8
SHEET
 10
16050.00
 20
26750.00
 40
0.00
 41
0.00
  0
VERTEX
  8
SHEET
 10
16050.00
 20
26750.00
  0
SEQEND
  8
SHEET
  0
POLYLINE
  8
SHEET
 66
     1
 10
0.00
 20
0.00
 40
0.00
 41
0.00
  0
VERTEX
  8
SHEET
 10
16400.00
 20
26750.00
 40
0.00
 41
0.00
  0
VERTEX
  8
SHEET
 10
16350.00
 20
26750.00
  0
VERTEX
  8
SHEET
 10
16350.00
 20
26750.00
 40
0.00
 41
0.00
 42
0.414
  0
VERTEX
  8
SHEET
 10
16325.00
 20
26775.00
  0
VERTEX
  8
SHEET
 10
16325.00
 20
26775.00
 40
0.00
 41
0.00
 42
0.414
  0
VERTEX
  8
SHEET
 10
16300.00
 20
26750.00
  0
VERTEX
  8
SHEET
 10
16300.00
 20
26750.00
 40
0.00
 41
0.00
 42
0.414
  0
VERTEX
  8
SHEET
 10
16325.00
 20
26725.00
  0
VERTEX
  8
SHEET
 10
16325.00
 20
26725.00
 40
0.00
 41
0.00
 42
0.414
  0
VERTEX
  8
SHEET
 10
16350.00
 20
26750.00
 40
0.00
 41
0.00
  0
VERTEX
  8
SHEET
 10
16350.00
 20
26750.00
  0
SEQEND
  8
SHEET
  0
POLYLINE
  8
SHEET
 66
     1
 10
0.00
 20
0.00
 40
0.00
 41
0.00
  0
VERTEX
  8
SHEET
 10
16320.00
 20
26775.00
 40
0.00
 41
0.00
  0
VERTEX
  8
SHEET
 10
16080.00
 20
26725.00
 40
0.00
 41
0.00
  0
VERTEX
  8
SHEET
 10
16080.00
 20
26725.00
  0
SEQEND
  8
SHEET
  0
POLYLINE
  8
SHEET
 66
     1
 10
0.00
 20
0.00
 40
0.00
 41
0.00
  0
VERTEX
  8
SHEET
 10
16080.00
 20
26775.00
 40
0.00
 41
0.00
  0
VERTEX
  8
SHEET
 10
16320.00
 20
26725.00
 40
0.00
 41
0.00
  0
VERTEX
  8
SHEET
 10
16320.00
 20
26725.00
  0
SEQEND
  8
SHEET
  0
TEXT
  8
SHEET
 62
     5
 10
16225.00
 20
26625.00
 40
50.00
  1
FS1
  0
INSERT
  8
SHEET
  2
2
 10
16150.00
 20
25850.00
 50
270.000
  0
TEXT
  8
SHEET
 62
    145
 10
16075.00
 20
25775.00
 40
50.00
  1
1
 72
     2
 11
16125.00
 21
25775.00
  0
POLYLINE
  8
SHEET
 66
     1
 10
0.00
 20
0.00
 40
0.00
 41
0.00
  0
VERTEX
  8
SHEET
 10
16150.00
 20
25850.00
 40
0.00
 41
0.00
  0
VERTEX
  8
SHEET
 10
16150.00
 20
25700.00
 40
0.00
 41
0.00
  0
VERTEX
  8
SHEET
 10
16150.00
 20
25700.00
  0
SEQEND
  8
SHEET
  0
POLYLINE
  8
SHEET
 66
     1
 10
0.00
 20
0.00
 40
0.00
 41
0.00
  0
VERTEX
  8
SHEET
 10
16075.00
 20
25650.00
 40
0.00
 41
0.00
  0
VERTEX
  8
SHEET
 10
16100.00
 20
25700.00
  0
VERTEX
  8
SHEET
 10
16100.00
 20
25700.00
 40
0.00
 41
0.00
  0
VERTEX
  8
SHEET
 10
16200.00
 20
25700.00
  0
VERTEX
  8
SHEET
 10
16200.00
 20
25700.00
 40
0.00
 41
0.00
  0
VERTEX
  8
SHEET
 10
16175.00
 20
25650.00
 40
0.00
 41
0.00
  0
VERTEX
  8
SHEET
 10
16175.00
 20
25650.00
  0
SEQEND
  8
SHEET
  0
POLYLINE
  8
SHEET
 66
     1
 10
0.00
 20
0.00
 40
0.00
 41
0.00
  0
VERTEX
  8
SHEET
 10
16125.00
 20
25700.00
 40
0.00
 41
0.00
  0
VERTEX
  8
SHEET
 10
16100.00
 20
25650.00
 40
0.00
 41
0.00
  0
VERTEX
  8
SHEET
 10
16100.00
 20
25650.00
  0
SEQEND
  8
SHEET
  0
POLYLINE
  8
SHEET
 66
     1
 10
0.00
 20
0.00
 40
0.00
 41
0.00
  0
VERTEX
  8
SHEET
 10
16150.00
 20
25700.00
 40
0.00
 41
0.00
  0
VERTEX
  8
SHEET
 10
16125.00
 20
25650.00
 40
0.00
 41
0.00
  0
VERTEX
  8
SHEET
 10
16125.00
 20
25650.00
  0
SEQEND
  8
SHEET
  0
POLYLINE
  8
SHEET
 66
     1
 10
0.00
 20
0.00
 40
0.00
 41
0.00
  0
VERTEX
  8
SHEET
 10
16175.00
 20
25700.00
 40
0.00
 41
0.00
  0
VERTEX
  8
SHEET
 10
16150.00
 20
25650.00
 40
0.00
 41
0.00
  0
VERTEX
  8
SHEET
 10
16150.00
 20
25650.00
  0
SEQEND
  8
SHEET
  0
TEXT
  8
SHEET
 62
     5
 10
16100.00
 20
25575.00
 40
50.00
  1
TP2
  0
INSERT
  8
SHEET
  2
2
 10
20550.00
 20
25150.00
  0
INSERT
  8
SHEET
  2
2
 10
20550.00
 20
25400.00
  0
POLYLINE
  8
SHEET
 66
     1
 10
0.00
 20
0.00
 40
0.00
 41
0.00
  0
VERTEX
  8
SHEET
 10
20450.00
 20
25250.00
 40
0.00
 41
0.00
  0
VERTEX
  8
SHEET
 10
20650.00
 20
25250.00
 40
0.00
 41
0.00
  0
VERTEX
  8
SHEET
 10
20650.00
 20
25250.00
  0
SEQEND
  8
SHEET
  0
POLYLINE
  8
SHEET
 66
     1
 10
0.00
 20
0.00
 40
0.00
 41
0.00
  0
VERTEX
  8
SHEET
 10
20450.00
 20
25300.00
 40
0.00
 41
0.00
  0
VERTEX
  8
SHEET
 10
20650.00
 20
25300.00
 40
0.00
 41
0.00
  0
VERTEX
  8
SHEET
 10
20650.00
 20
25300.00
  0
SEQEND
  8
SHEET
  0
POLYLINE
  8
SHEET
 66
     1
 10
0.00
 20
0.00
 40
0.00
 41
0.00
  0
VERTEX
  8
SHEET
 10
20550.00
 20
25150.00
 40
0.00
 41
0.00
  0
VERTEX
  8
SHEET
 10
20550.00
 20
25250.00
 40
0.00
 41
0.00
  0
VERTEX
  8
SHEET
 10
20550.00
 20
25250.00
  0
SEQEND
  8
SHEET
  0
POLYLINE
  8
SHEET
 66
     1
 10
0.00
 20
0.00
 40
0.00
 41
0.00
  0
VERTEX
  8
SHEET
 10
20550.00
 20
25300.00
 40
0.00
 41
0.00
  0
VERTEX
  8
SHEET
 10
20550.00
 20
25400.00
 40
0.00
 41
0.00
  0
VERTEX
  8
SHEET
 10
20550.00
 20
25400.00
  0
SEQEND
  8
SHEET
  0
TEXT
  8
SHEET
 62
     5
 10
20700.00
 20
25050.00
 40
50.00
  1
C7
 50
90.000
  0
TEXT
  8
SHEET
 62
     5
 10
20760.00
 20
25050.00
 40
50.00
  1
50ufd
 50
90.000
  0
TEXT
  8
SHEET
 62
     5
 10
20820.00
 20
25050.00
 40
50.00
  1
2000VDC
 50
90.000
  0
TEXT
  8
SHEET
 62
     5
 10
20880.00
 20
25050.00
 40
50.00
  1
OIL FILLED
 50
90.000
  0
INSERT
  8
SHEET
  2
2
 10
22350.00
 20
24200.00
 50
180.000
  0
INSERT
  8
SHEET
  2
2
 10
22350.00
 20
23700.00
 50
180.000
  0
INSERT
  8
SHEET
  2
2
 10
22550.00
 20
23950.00
 50
180.000
  0
POLYLINE
  8
SHEET
 66
     1
 10
0.00
 20
0.00
 40
0.00
 41
0.00
  0
VERTEX
  8
SHEET
 10
22350.00
 20
23700.00
 40
0.00
 41
0.00
  0
VERTEX
  8
SHEET
 10
22350.00
 20
23800.00
  0
VERTEX
  8
SHEET
 10
22350.00
 20
23800.00
 40
0.00
 41
0.00
  0
VERTEX
  8
SHEET
 10
22400.00
 20
23825.00
  0
VERTEX
  8
SHEET
 10
22400.00
 20
23825.00
 40
0.00
 41
0.00
  0
VERTEX
  8
SHEET
 10
22300.00
 20
23875.00
  0
VERTEX
  8
SHEET
 10
22300.00
 20
23875.00
 40
0.00
 41
0.00
  0
VERTEX
  8
SHEET
 10
22400.00
 20
23925.00
  0
VERTEX
  8
SHEET
 10
22400.00
 20
23925.00
 40
0.00
 41
0.00
  0
VERTEX
  8
SHEET
 10
22300.00
 20
23975.00
  0
VERTEX
  8
SHEET
 10
22300.00
 20
23975.00
 40
0.00
 41
0.00
  0
VERTEX
  8
SHEET
 10
22400.00
 20
24025.00
  0
VERTEX
  8
SHEET
 10
22400.00
 20
24025.00
 40
0.00
 41
0.00
  0
VERTEX
  8
SHEET
 10
22300.00
 20
24075.00
  0
VERTEX
  8
SHEET
 10
22300.00
 20
24075.00
 40
0.00
 41
0.00
  0
VERTEX
  8
SHEET
 10
22350.00
 20
24100.00
  0
VERTEX
  8
SHEET
 10
22350.00
 20
24100.00
 40
0.00
 41
0.00
  0
VERTEX
  8
SHEET
 10
22350.00
 20
24200.00
 40
0.00
 41
0.00
  0
VERTEX
  8
SHEET
 10
22350.00
 20
24200.00
  0
SEQEND
  8
SHEET
  0
POLYLINE
  8
SHEET
 66
     1
 10
0.00
 20
0.00
 40
0.00
 41
0.00
  0
VERTEX
  8
SHEET
 10
22400.00
 20
23950.00
 40
0.00
 41
0.00
  0
VERTEX
  8
SHEET
 10
22550.00
 20
23950.00
 40
0.00
 41
0.00
  0
VERTEX
  8
SHEET
 10
22550.00
 20
23950.00
  0
SEQEND
  8
SHEET
  0
POLYLINE
  8
SHEET
 66
     1
 10
0.00
 20
0.00
 40
0.00
 41
0.00
  0
VERTEX
  8
SHEET
 10
22450.00
 20
23975.00
 40
0.00
 41
0.00
  0
VERTEX
  8
SHEET
 10
22400.00
 20
23950.00
  0
VERTEX
  8
SHEET
 10
22400.00
 20
23950.00
 40
0.00
 41
0.00
  0
VERTEX
  8
SHEET
 10
22450.00
 20
23925.00
 40
0.00
 41
0.00
  0
VERTEX
  8
SHEET
 10
22450.00
 20
23925.00
  0
SEQEND
  8
SHEET
  0
TEXT
  8
SHEET
 62
     5
 10
22225.00
 20
24025.00
 40
50.00
  1
R17
 50
270.000
  0
TEXT
  8
SHEET
 62
     5
 10
22165.00
 20
24025.00
 40
50.00
  1
100k
 50
270.000
  0
INSERT
  8
SHEET
  2
2
 10
22450.00
 20
26350.00
 50
180.000
  0
INSERT
  8
SHEET
  2
2
 10
22450.00
 20
25850.00
 50
180.000
  0
INSERT
  8
SHEET
  2
2
 10
22650.00
 20
26100.00
 50
180.000
  0
POLYLINE
  8
SHEET
 66
     1
 10
0.00
 20
0.00
 40
0.00
 41
0.00
  0
VERTEX
  8
SHEET
 10
22450.00
 20
25850.00
 40
0.00
 41
0.00
  0
VERTEX
  8
SHEET
 10
22450.00
 20
25950.00
  0
VERTEX
  8
SHEET
 10
22450.00
 20
25950.00
 40
0.00
 41
0.00
  0
VERTEX
  8
SHEET
 10
22500.00
 20
25975.00
  0
VERTEX
  8
SHEET
 10
22500.00
 20
25975.00
 40
0.00
 41
0.00
  0
VERTEX
  8
SHEET
 10
22400.00
 20
26025.00
  0
VERTEX
  8
SHEET
 10
22400.00
 20
26025.00
 40
0.00
 41
0.00
  0
VERTEX
  8
SHEET
 10
22500.00
 20
26075.00
  0
VERTEX
  8
SHEET
 10
22500.00
 20
26075.00
 40
0.00
 41
0.00
  0
VERTEX
  8
SHEET
 10
22400.00
 20
26125.00
  0
VERTEX
  8
SHEET
 10
22400.00
 20
26125.00
 40
0.00
 41
0.00
  0
VERTEX
  8
SHEET
 10
22500.00
 20
26175.00
  0
VERTEX
  8
SHEET
 10
22500.00
 20
26175.00
 40
0.00
 41
0.00
  0
VERTEX
  8
SHEET
 10
22400.00
 20
26225.00
  0
VERTEX
  8
SHEET
 10
22400.00
 20
26225.00
 40
0.00
 41
0.00
  0
VERTEX
  8
SHEET
 10
22450.00
 20
26250.00
  0
VERTEX
  8
SHEET
 10
22450.00
 20
26250.00
 40
0.00
 41
0.00
  0
VERTEX
  8
SHEET
 10
22450.00
 20
26350.00
 40
0.00
 41
0.00
  0
VERTEX
  8
SHEET
 10
22450.00
 20
26350.00
  0
SEQEND
  8
SHEET
  0
POLYLINE
  8
SHEET
 66
     1
 10
0.00
 20
0.00
 40
0.00
 41
0.00
  0
VERTEX
  8
SHEET
 10
22500.00
 20
26100.00
 40
0.00
 41
0.00
  0
VERTEX
  8
SHEET
 10
22650.00
 20
26100.00
 40
0.00
 41
0.00
  0
VERTEX
  8
SHEET
 10
22650.00
 20
26100.00
  0
SEQEND
  8
SHEET
  0
POLYLINE
  8
SHEET
 66
     1
 10
0.00
 20
0.00
 40
0.00
 41
0.00
  0
VERTEX
  8
SHEET
 10
22550.00
 20
26125.00
 40
0.00
 41
0.00
  0
VERTEX
  8
SHEET
 10
22500.00
 20
26100.00
  0
VERTEX
  8
SHEET
 10
22500.00
 20
26100.00
 40
0.00
 41
0.00
  0
VERTEX
  8
SHEET
 10
22550.00
 20
26075.00
 40
0.00
 41
0.00
  0
VERTEX
  8
SHEET
 10
22550.00
 20
26075.00
  0
SEQEND
  8
SHEET
  0
TEXT
  8
SHEET
 62
     5
 10
22325.00
 20
26175.00
 40
50.00
  1
R18
 50
270.000
  0
TEXT
  8
SHEET
 62
     5
 10
22265.00
 20
26175.00
 40
50.00
  1
100k
 50
270.000
  0
INSERT
  8
SHEET
  2
2
 10
18850.00
 20
21950.00
 50
270.000
  0
INSERT
  8
SHEET
  2
2
 10
19200.00
 20
21950.00
 50
270.000
  0
INSERT
  8
SHEET
  2
__JUNCTIONS__
 10
19200.00
 20
21950.00
 50
270.000
  0
POLYLINE
  8
SHEET
 66
     1
 10
0.00
 20
0.00
 70
     1
 40
0.00
 41
0.00
  0
VERTEX
  8
SHEET
 10
18950.00
 20
21850.00
 40
0.00
 41
0.00
  0
VERTEX
  8
SHEET
 10
18950.00
 20
22050.00
  0
VERTEX
  8
SHEET
 10
18950.00
 20
22050.00
 40
0.00
 41
0.00
  0
VERTEX
  8
SHEET
 10
19100.00
 20
21950.00
  0
VERTEX
  8
SHEET
 10
19100.00
 20
21950.00
 40
0.00
 41
0.00
  0
VERTEX
  8
SHEET
 10
18950.00
 20
21850.00
 40
0.00
 41
0.00
  0
VERTEX
  8
SHEET
 10
18950.00
 20
21850.00
  0
SEQEND
  8
SHEET
  0
POLYLINE
  8
SHEET
 66
     1
 10
0.00
 20
0.00
 40
0.00
 41
0.00
  0
VERTEX
  8
SHEET
 10
19100.00
 20
22050.00
 40
0.00
 41
0.00
  0
VERTEX
  8
SHEET
 10
19100.00
 20
21850.00
 40
0.00
 41
0.00
  0
VERTEX
  8
SHEET
 10
19100.00
 20
21850.00
  0
SEQEND
  8
SHEET
  0
POLYLINE
  8
SHEET
 66
     1
 10
0.00
 20
0.00
 40
0.00
 41
0.00
  0
VERTEX
  8
SHEET
 10
18850.00
 20
21950.00
 40
0.00
 41
0.00
  0
VERTEX
  8
SHEET
 10
18950.00
 20
21950.00
 40
0.00
 41
0.00
  0
VERTEX
  8
SHEET
 10
18950.00
 20
21950.00
  0
SEQEND
  8
SHEET
  0
POLYLINE
  8
SHEET
 66
     1
 10
0.00
 20
0.00
 40
0.00
 41
0.00
  0
VERTEX
  8
SHEET
 10
19100.00
 20
21950.00
 40
0.00
 41
0.00
  0
VERTEX
  8
SHEET
 10
19200.00
 20
21950.00
 40
0.00
 41
0.00
  0
VERTEX
  8
SHEET
 10
19200.00
 20
21950.00
  0
SEQEND
  8
SHEET
  0
INSERT
  8
SHEET
  2
2
 10
19350.00
 20
21250.00
  0
INSERT
  8
SHEET
  2
__JUNCTIONS__
 10
19350.00
 20
21250.00
  0
INSERT
  8
SHEET
  2
2
 10
19350.00
 20
21600.00
  0
POLYLINE
  8
SHEET
 66
     1
 10
0.00
 20
0.00
 70
     1
 40
0.00
 41
0.00
  0
VERTEX
  8
SHEET
 10
19450.00
 20
21350.00
 40
0.00
 41
0.00
  0
VERTEX
  8
SHEET
 10
19250.00
 20
21350.00
  0
VERTEX
  8
SHEET
 10
19250.00
 20
21350.00
 40
0.00
 41
0.00
  0
VERTEX
  8
SHEET
 10
19350.00
 20
21500.00
  0
VERTEX
  8
SHEET
 10
19350.00
 20
21500.00
 40
0.00
 41
0.00
  0
VERTEX
  8
SHEET
 10
19450.00
 20
21350.00
 40
0.00
 41
0.00
  0
VERTEX
  8
SHEET
 10
19450.00
 20
21350.00
  0
SEQEND
  8
SHEET
  0
POLYLINE
  8
SHEET
 66
     1
 10
0.00
 20
0.00
 40
0.00
 41
0.00
  0
VERTEX
  8
SHEET
 10
19250.00
 20
21500.00
 40
0.00
 41
0.00
  0
VERTEX
  8
SHEET
 10
19450.00
 20
21500.00
 40
0.00
 41
0.00
  0
VERTEX
  8
SHEET
 10
19450.00
 20
21500.00
  0
SEQEND
  8
SHEET
  0
POLYLINE
  8
SHEET
 66
     1
 10
0.00
 20
0.00
 40
0.00
 41
0.00
  0
VERTEX
  8
SHEET
 10
19350.00
 20
21250.00
 40
0.00
 41
0.00
  0
VERTEX
  8
SHEET
 10
19350.00
 20
21350.00
 40
0.00
 41
0.00
  0
VERTEX
  8
SHEET
 10
19350.00
 20
21350.00
  0
SEQEND
  8
SHEET
  0
POLYLINE
  8
SHEET
 66
     1
 10
0.00
 20
0.00
 40
0.00
 41
0.00
  0
VERTEX
  8
SHEET
 10
19350.00
 20
21500.00
 40
0.00
 41
0.00
  0
VERTEX
  8
SHEET
 10
19350.00
 20
21600.00
 40
0.00
 41
0.00
  0
VERTEX
  8
SHEET
 10
19350.00
 20
21600.00
  0
SEQEND
  8
SHEET
  0
INSERT
  8
SHEET
  2
2
 10
19250.00
 20
21100.00
 50
90.000
  0
INSERT
  8
SHEET
  2
2
 10
18900.00
 20
21100.00
 50
90.000
  0
POLYLINE
  8
SHEET
 66
     1
 10
0.00
 20
0.00
 70
     1
 40
0.00
 41
0.00
  0
VERTEX
  8
SHEET
 10
19150.00
 20
21200.00
 40
0.00
 41
0.00
  0
VERTEX
  8
SHEET
 10
19150.00
 20
21000.00
  0
VERTEX
  8
SHEET
 10
19150.00
 20
21000.00
 40
0.00
 41
0.00
  0
VERTEX
  8
SHEET
 10
19000.00
 20
21100.00
  0
VERTEX
  8
SHEET
 10
19000.00
 20
21100.00
 40
0.00
 41
0.00
  0
VERTEX
  8
SHEET
 10
19150.00
 20
21200.00
 40
0.00
 41
0.00
  0
VERTEX
  8
SHEET
 10
19150.00
 20
21200.00
  0
SEQEND
  8
SHEET
  0
POLYLINE
  8
SHEET
 66
     1
 10
0.00
 20
0.00
 40
0.00
 41
0.00
  0
VERTEX
  8
SHEET
 10
19000.00
 20
21000.00
 40
0.00
 41
0.00
  0
VERTEX
  8
SHEET
 10
19000.00
 20
21200.00
 40
0.00
 41
0.00
  0
VERTEX
  8
SHEET
 10
19000.00
 20
21200.00
  0
SEQEND
  8
SHEET
  0
POLYLINE
  8
SHEET
 66
     1
 10
0.00
 20
0.00
 40
0.00
 41
0.00
  0
VERTEX
  8
SHEET
 10
19250.00
 20
21100.00
 40
0.00
 41
0.00
  0
VERTEX
  8
SHEET
 10
19150.00
 20
21100.00
 40
0.00
 41
0.00
  0
VERTEX
  8
SHEET
 10
19150.00
 20
21100.00
  0
SEQEND
  8
SHEET
  0
POLYLINE
  8
SHEET
 66
     1
 10
0.00
 20
0.00
 40
0.00
 41
0.00
  0
VERTEX
  8
SHEET
 10
19000.00
 20
21100.00
 40
0.00
 41
0.00
  0
VERTEX
  8
SHEET
 10
18900.00
 20
21100.00
 40
0.00
 41
0.00
  0
VERTEX
  8
SHEET
 10
18900.00
 20
21100.00
  0
SEQEND
  8
SHEET
  0
INSERT
  8
SHEET
  2
2
 10
18750.00
 20
21600.00
 50
180.000
  0
INSERT
  8
SHEET
  2
2
 10
18750.00
 20
21250.00
 50
180.000
  0
POLYLINE
  8
SHEET
 66
     1
 10
0.00
 20
0.00
 70
     1
 40
0.00
 41
0.00
  0
VERTEX
  8
SHEET
 10
18650.00
 20
21500.00
 40
0.00
 41
0.00
  0
VERTEX
  8
SHEET
 10
18850.00
 20
21500.00
  0
VERTEX
  8
SHEET
 10
18850.00
 20
21500.00
 40
0.00
 41
0.00
  0
VERTEX
  8
SHEET
 10
18750.00
 20
21350.00
  0
VERTEX
  8
SHEET
 10
18750.00
 20
21350.00
 40
0.00
 41
0.00
  0
VERTEX
  8
SHEET
 10
18650.00
 20
21500.00
 40
0.00
 41
0.00
  0
VERTEX
  8
SHEET
 10
18650.00
 20
21500.00
  0
SEQEND
  8
SHEET
  0
POLYLINE
  8
SHEET
 66
     1
 10
0.00
 20
0.00
 40
0.00
 41
0.00
  0
VERTEX
  8
SHEET
 10
18850.00
 20
21350.00
 40
0.00
 41
0.00
  0
VERTEX
  8
SHEET
 10
18650.00
 20
21350.00
 40
0.00
 41
0.00
  0
VERTEX
  8
SHEET
 10
18650.00
 20
21350.00
  0
SEQEND
  8
SHEET
  0
POLYLINE
  8
SHEET
 66
     1
 10
0.00
 20
0.00
 40
0.00
 41
0.00
  0
VERTEX
  8
SHEET
 10
18750.00
 20
21600.00
 40
0.00
 41
0.00
  0
VERTEX
  8
SHEET
 10
18750.00
 20
21500.00
 40
0.00
 41
0.00
  0
VERTEX
  8
SHEET
 10
18750.00
 20
21500.00
  0
SEQEND
  8
SHEET
  0
POLYLINE
  8
SHEET
 66
     1
 10
0.00
 20
0.00
 40
0.00
 41
0.00
  0
VERTEX
  8
SHEET
 10
18750.00
 20
21350.00
 40
0.00
 41
0.00
  0
VERTEX
  8
SHEET
 10
18750.00
 20
21250.00
 40
0.00
 41
0.00
  0
VERTEX
  8
SHEET
 10
18750.00
 20
21250.00
  0
SEQEND
  8
SHEET
  0
INSERT
  8
SHEET
  2
2
 10
25100.00
 20
21400.00
  0
INSERT
  8
SHEET
  2
2
 10
25100.00
 20
21900.00
  0
INSERT
  8
SHEET
  2
2
 10
24900.00
 20
21650.00
  0
POLYLINE
  8
SHEET
 66
     1
 10
0.00
 20
0.00
 70
     1
 40
0.00
 41
0.00
  0
VERTEX
  8
SHEET
 10
25150.00
 20
21500.00
 40
0.00
 41
0.00
  0
VERTEX
  8
SHEET
 10
25050.00
 20
21500.00
  0
VERTEX
  8
SHEET
 10
25050.00
 20
21500.00
 40
0.00
 41
0.00
  0
VERTEX
  8
SHEET
 10
25050.00
 20
21800.00
  0
VERTEX
  8
SHEET
 10
25050.00
 20
21800.00
 40
0.00
 41
0.00
  0
VERTEX
  8
SHEET
 10
25150.00
 20
21800.00
  0
VERTEX
  8
SHEET
 10
25150.00
 20
21800.00
 40
0.00
 41
0.00
  0
VERTEX
  8
SHEET
 10
25150.00
 20
21500.00
 40
0.00
 41
0.00
  0
VERTEX
  8
SHEET
 10
25150.00
 20
21500.00
  0
SEQEND
  8
SHEET
  0
POLYLINE
  8
SHEET
 66
     1
 10
0.00
 20
0.00
 40
0.00
 41
0.00
  0
VERTEX
  8
SHEET
 10
25100.00
 20
21400.00
 40
0.00
 41
0.00
  0
VERTEX
  8
SHEET
 10
25100.00
 20
21500.00
 40
0.00
 41
0.00
  0
VERTEX
  8
SHEET
 10
25100.00
 20
21500.00
  0
SEQEND
  8
SHEET
  0
POLYLINE
  8
SHEET
 66
     1
 10
0.00
 20
0.00
 40
0.00
 41
0.00
  0
VERTEX
  8
SHEET
 10
25100.00
 20
21800.00
 40
0.00
 41
0.00
  0
VERTEX
  8
SHEET
 10
25100.00
 20
21900.00
 40
0.00
 41
0.00
  0
VERTEX
  8
SHEET
 10
25100.00
 20
21900.00
  0
SEQEND
  8
SHEET
  0
POLYLINE
  8
SHEET
 66
     1
 10
0.00
 20
0.00
 40
0.00
 41
0.00
  0
VERTEX
  8
SHEET
 10
24900.00
 20
21650.00
 40
0.00
 41
0.00
  0
VERTEX
  8
SHEET
 10
25025.00
 20
21650.00
 40
0.00
 41
0.00
  0
VERTEX
  8
SHEET
 10
25025.00
 20
21650.00
  0
SEQEND
  8
SHEET
  0
POLYLINE
  8
SHEET
 66
     1
 10
0.00
 20
0.00
 40
0.00
 41
0.00
  0
VERTEX
  8
SHEET
 10
25025.00
 20
21625.00
 40
0.00
 41
0.00
  0
VERTEX
  8
SHEET
 10
25025.00
 20
21675.00
 40
0.00
 41
0.00
  0
VERTEX
  8
SHEET
 10
25025.00
 20
21675.00
  0
SEQEND
  8
SHEET
  0
TEXT
  8
SHEET
 62
     5
 10
25225.00
 20
21575.00
 40
50.00
  1
RL1
 50
90.000
  0
TEXT
  8
SHEET
 62
     5
 10
25285.00
 20
21575.00
 40
50.00
  1
Flashlamp
 50
90.000
  0
INSERT
  8
SHEET
  2
2
 10
25450.00
 20
20400.00
  0
INSERT
  8
SHEET
  2
2
 10
25450.00
 20
20900.00
  0
INSERT
  8
SHEET
  2
2
 10
25250.00
 20
20650.00
  0
POLYLINE
  8
SHEET
 66
     1
 10
0.00
 20
0.00
 70
     1
 40
0.00
 41
0.00
  0
VERTEX
  8
SHEET
 10
25500.00
 20
20500.00
 40
0.00
 41
0.00
  0
VERTEX
  8
SHEET
 10
25400.00
 20
20500.00
  0
VERTEX
  8
SHEET
 10
25400.00
 20
20500.00
 40
0.00
 41
0.00
  0
VERTEX
  8
SHEET
 10
25400.00
 20
20800.00
  0
VERTEX
  8
SHEET
 10
25400.00
 20
20800.00
 40
0.00
 41
0.00
  0
VERTEX
  8
SHEET
 10
25500.00
 20
20800.00
  0
VERTEX
  8
SHEET
 10
25500.00
 20
20800.00
 40
0.00
 41
0.00
  0
VERTEX
  8
SHEET
 10
25500.00
 20
20500.00
 40
0.00
 41
0.00
  0
VERTEX
  8
SHEET
 10
25500.00
 20
20500.00
  0
SEQEND
  8
SHEET
  0
POLYLINE
  8
SHEET
 66
     1
 10
0.00
 20
0.00
 40
0.00
 41
0.00
  0
VERTEX
  8
SHEET
 10
25450.00
 20
20400.00
 40
0.00
 41
0.00
  0
VERTEX
  8
SHEET
 10
25450.00
 20
20500.00
 40
0.00
 41
0.00
  0
VERTEX
  8
SHEET
 10
25450.00
 20
20500.00
  0
SEQEND
  8
SHEET
  0
POLYLINE
  8
SHEET
 66
     1
 10
0.00
 20
0.00
 40
0.00
 41
0.00
  0
VERTEX
  8
SHEET
 10
25450.00
 20
20800.00
 40
0.00
 41
0.00
  0
VERTEX
  8
SHEET
 10
25450.00
 20
20900.00
 40
0.00
 41
0.00
  0
VERTEX
  8
SHEET
 10
25450.00
 20
20900.00
  0
SEQEND
  8
SHEET
  0
POLYLINE
  8
SHEET
 66
     1
 10
0.00
 20
0.00
 40
0.00
 41
0.00
  0
VERTEX
  8
SHEET
 10
25250.00
 20
20650.00
 40
0.00
 41
0.00
  0
VERTEX
  8
SHEET
 10
25375.00
 20
20650.00
 40
0.00
 41
0.00
  0
VERTEX
  8
SHEET
 10
25375.00
 20
20650.00
  0
SEQEND
  8
SHEET
  0
POLYLINE
  8
SHEET
 66
     1
 10
0.00
 20
0.00
 40
0.00
 41
0.00
  0
VERTEX
  8
SHEET
 10
25375.00
 20
20625.00
 40
0.00
 41
0.00
  0
VERTEX
  8
SHEET
 10
25375.00
 20
20675.00
 40
0.00
 41
0.00
  0
VERTEX
  8
SHEET
 10
25375.00
 20
20675.00
  0
SEQEND
  8
SHEET
  0
TEXT
  8
SHEET
 62
     5
 10
25575.00
 20
20575.00
 40
50.00
  1
RL2
 50
90.000
  0
TEXT
  8
SHEET
 62
     5
 10
25635.00
 20
20575.00
 40
50.00
  1
Flashlamp
 50
90.000
  0
INSERT
  8
SHEET
  2
2
 10
24600.00
 20
21150.00
 50
270.000
  0
TEXT
  8
SHEET
 62
    145
 10
24525.00
 20
21075.00
 40
50.00
  1
1
 72
     2
 11
24575.00
 21
21075.00
  0
POLYLINE
  8
SHEET
 66
     1
 10
0.00
 20
0.00
 40
0.00
 41
0.00
  0
VERTEX
  8
SHEET
 10
24600.00
 20
21150.00
 40
0.00
 41
0.00
  0
VERTEX
  8
SHEET
 10
24600.00
 20
21000.00
 40
0.00
 41
0.00
  0
VERTEX
  8
SHEET
 10
24600.00
 20
21000.00
  0
SEQEND
  8
SHEET
  0
POLYLINE
  8
SHEET
 66
     1
 10
0.00
 20
0.00
 40
0.00
 41
0.00
  0
VERTEX
  8
SHEET
 10
24525.00
 20
20950.00
 40
0.00
 41
0.00
  0
VERTEX
  8
SHEET
 10
24550.00
 20
21000.00
  0
VERTEX
  8
SHEET
 10
24550.00
 20
21000.00
 40
0.00
 41
0.00
  0
VERTEX
  8
SHEET
 10
24650.00
 20
21000.00
  0
VERTEX
  8
SHEET
 10
24650.00
 20
21000.00
 40
0.00
 41
0.00
  0
VERTEX
  8
SHEET
 10
24625.00
 20
20950.00
 40
0.00
 41
0.00
  0
VERTEX
  8
SHEET
 10
24625.00
 20
20950.00
  0
SEQEND
  8
SHEET
  0
POLYLINE
  8
SHEET
 66
     1
 10
0.00
 20
0.00
 40
0.00
 41
0.00
  0
VERTEX
  8
SHEET
 10
24575.00
 20
21000.00
 40
0.00
 41
0.00
  0
VERTEX
  8
SHEET
 10
24550.00
 20
20950.00
 40
0.00
 41
0.00
  0
VERTEX
  8
SHEET
 10
24550.00
 20
20950.00
  0
SEQEND
  8
SHEET
  0
POLYLINE
  8
SHEET
 66
     1
 10
0.00
 20
0.00
 40
0.00
 41
0.00
  0
VERTEX
  8
SHEET
 10
24600.00
 20
21000.00
 40
0.00
 41
0.00
  0
VERTEX
  8
SHEET
 10
24575.00
 20
20950.00
 40
0.00
 41
0.00
  0
VERTEX
  8
SHEET
 10
24575.00
 20
20950.00
  0
SEQEND
  8
SHEET
  0
POLYLINE
  8
SHEET
 66
     1
 10
0.00
 20
0.00
 40
0.00
 41
0.00
  0
VERTEX
  8
SHEET
 10
24625.00
 20
21000.00
 40
0.00
 41
0.00
  0
VERTEX
  8
SHEET
 10
24600.00
 20
20950.00
 40
0.00
 41
0.00
  0
VERTEX
  8
SHEET
 10
24600.00
 20
20950.00
  0
SEQEND
  8
SHEET
  0
TEXT
  8
SHEET
 62
     5
 10
24550.00
 20
20875.00
 40
50.00
  1
TP3
  0
INSERT
  8
SHEET
  2
2
 10
15400.00
 20
26450.00
 50
90.000
  0
INSERT
  8
SHEET
  2
2
 10
15400.00
 20
26550.00
 50
90.000
  0
INSERT
  8
SHEET
  2
2
 10
15400.00
 20
26650.00
 50
90.000
  0
POLYLINE
  8
SHEET
 66
     1
 10
0.00
 20
0.00
 40
0.00
 41
0.00
  0
VERTEX
  8
SHEET
 10
15400.00
 20
26450.00
 40
0.00
 41
0.00
  0
VERTEX
  8
SHEET
 10
15300.00
 20
26450.00
 40
0.00
 41
0.00
  0
VERTEX
  8
SHEET
 10
15300.00
 20
26450.00
  0
SEQEND
  8
SHEET
  0
POLYLINE
  8
SHEET
 66
     1
 10
0.00
 20
0.00
 40
0.00
 41
0.00
  0
VERTEX
  8
SHEET
 10
15300.00
 20
26450.00
 40
0.00
 41
0.00
  0
VERTEX
  8
SHEET
 10
15200.00
 20
26450.00
 40
0.00
 41
0.00
  0
VERTEX
  8
SHEET
 10
15200.00
 20
26450.00
  0
SEQEND
  8
SHEET
  0
POLYLINE
  8
SHEET
 66
     1
 10
0.00
 20
0.00
 40
0.00
 41
0.00
  0
VERTEX
  8
SHEET
 10
15400.00
 20
26550.00
 40
0.00
 41
0.00
  0
VERTEX
  8
SHEET
 10
15300.00
 20
26550.00
 40
0.00
 41
0.00
  0
VERTEX
  8
SHEET
 10
15300.00
 20
26550.00
  0
SEQEND
  8
SHEET
  0
POLYLINE
  8
SHEET
 66
     1
 10
0.00
 20
0.00
 40
0.00
 41
0.00
  0
VERTEX
  8
SHEET
 10
15300.00
 20
26550.00
 40
0.00
 41
0.00
  0
VERTEX
  8
SHEET
 10
15200.00
 20
26550.00
 40
0.00
 41
0.00
  0
VERTEX
  8
SHEET
 10
15200.00
 20
26550.00
  0
SEQEND
  8
SHEET
  0
POLYLINE
  8
SHEET
 66
     1
 10
0.00
 20
0.00
 40
0.00
 41
0.00
  0
VERTEX
  8
SHEET
 10
15400.00
 20
26650.00
 40
0.00
 41
0.00
  0
VERTEX
  8
SHEET
 10
15300.00
 20
26650.00
 40
0.00
 41
0.00
  0
VERTEX
  8
SHEET
 10
15300.00
 20
26650.00
  0
SEQEND
  8
SHEET
  0
POLYLINE
  8
SHEET
 66
     1
 10
0.00
 20
0.00
 40
0.00
 41
0.00
  0
VERTEX
  8
SHEET
 10
15300.00
 20
26650.00
 40
0.00
 41
0.00
  0
VERTEX
  8
SHEET
 10
15200.00
 20
26650.00
 40
0.00
 41
0.00
  0
VERTEX
  8
SHEET
 10
15200.00
 20
26650.00
  0
SEQEND
  8
SHEET
  0
TEXT
  8
SHEET
 62
     5
 10
15200.00
 20
26900.00
 40
50.00
  1
PL1
  0
INSERT
  8
SHEET
  2
2
 10
19350.00
 20
20850.00
 50
270.000
  0
TEXT
  8
SHEET
 62
    145
 10
19275.00
 20
20775.00
 40
50.00
  1
1
 72
     2
 11
19325.00
 21
20775.00
  0
POLYLINE
  8
SHEET
 66
     1
 10
0.00
 20
0.00
 40
0.00
 41
0.00
  0
VERTEX
  8
SHEET
 10
19350.00
 20
20850.00
 40
0.00
 41
0.00
  0
VERTEX
  8
SHEET
 10
19350.00
 20
20700.00
 40
0.00
 41
0.00
  0
VERTEX
  8
SHEET
 10
19350.00
 20
20700.00
  0
SEQEND
  8
SHEET
  0
POLYLINE
  8
SHEET
 66
     1
 10
0.00
 20
0.00
 40
0.00
 41
0.00
  0
VERTEX
  8
SHEET
 10
19275.00
 20
20650.00
 40
0.00
 41
0.00
  0
VERTEX
  8
SHEET
 10
19300.00
 20
20700.00
  0
VERTEX
  8
SHEET
 10
19300.00
 20
20700.00
 40
0.00
 41
0.00
  0
VERTEX
  8
SHEET
 10
19400.00
 20
20700.00
  0
VERTEX
  8
SHEET
 10
19400.00
 20
20700.00
 40
0.00
 41
0.00
  0
VERTEX
  8
SHEET
 10
19375.00
 20
20650.00
 40
0.00
 41
0.00
  0
VERTEX
  8
SHEET
 10
19375.00
 20
20650.00
  0
SEQEND
  8
SHEET
  0
POLYLINE
  8
SHEET
 66
     1
 10
0.00
 20
0.00
 40
0.00
 41
0.00
  0
VERTEX
  8
SHEET
 10
19325.00
 20
20700.00
 40
0.00
 41
0.00
  0
VERTEX
  8
SHEET
 10
19300.00
 20
20650.00
 40
0.00
 41
0.00
  0
VERTEX
  8
SHEET
 10
19300.00
 20
20650.00
  0
SEQEND
  8
SHEET
  0
POLYLINE
  8
SHEET
 66
     1
 10
0.00
 20
0.00
 40
0.00
 41
0.00
  0
VERTEX
  8
SHEET
 10
19350.00
 20
20700.00
 40
0.00
 41
0.00
  0
VERTEX
  8
SHEET
 10
19325.00
 20
20650.00
 40
0.00
 41
0.00
  0
VERTEX
  8
SHEET
 10
19325.00
 20
20650.00
  0
SEQEND
  8
SHEET
  0
POLYLINE
  8
SHEET
 66
     1
 10
0.00
 20
0.00
 40
0.00
 41
0.00
  0
VERTEX
  8
SHEET
 10
19375.00
 20
20700.00
 40
0.00
 41
0.00
  0
VERTEX
  8
SHEET
 10
19350.00
 20
20650.00
 40
0.00
 41
0.00
  0
VERTEX
  8
SHEET
 10
19350.00
 20
20650.00
  0
SEQEND
  8
SHEET
  0
TEXT
  8
SHEET
 62
     5
 10
19300.00
 20
20575.00
 40
50.00
  1
TP4
  0
INSERT
  8
SHEET
  2
2
 10
20450.00
 20
22450.00
 50
270.000
  0
TEXT
  8
SHEET
 62
    145
 10
20375.00
 20
22375.00
 40
50.00
  1
1
 72
     2
 11
20425.00
 21
22375.00
  0
POLYLINE
  8
SHEET
 66
     1
 10
0.00
 20
0.00
 40
0.00
 41
0.00
  0
VERTEX
  8
SHEET
 10
20450.00
 20
22450.00
 40
0.00
 41
0.00
  0
VERTEX
  8
SHEET
 10
20450.00
 20
22300.00
 40
0.00
 41
0.00
  0
VERTEX
  8
SHEET
 10
20450.00
 20
22300.00
  0
SEQEND
  8
SHEET
  0
POLYLINE
  8
SHEET
 66
     1
 10
0.00
 20
0.00
 40
0.00
 41
0.00
  0
VERTEX
  8
SHEET
 10
20375.00
 20
22250.00
 40
0.00
 41
0.00
  0
VERTEX
  8
SHEET
 10
20400.00
 20
22300.00
  0
VERTEX
  8
SHEET
 10
20400.00
 20
22300.00
 40
0.00
 41
0.00
  0
VERTEX
  8
SHEET
 10
20500.00
 20
22300.00
  0
VERTEX
  8
SHEET
 10
20500.00
 20
22300.00
 40
0.00
 41
0.00
  0
VERTEX
  8
SHEET
 10
20475.00
 20
22250.00
 40
0.00
 41
0.00
  0
VERTEX
  8
SHEET
 10
20475.00
 20
22250.00
  0
SEQEND
  8
SHEET
  0
POLYLINE
  8
SHEET
 66
     1
 10
0.00
 20
0.00
 40
0.00
 41
0.00
  0
VERTEX
  8
SHEET
 10
20425.00
 20
22300.00
 40
0.00
 41
0.00
  0
VERTEX
  8
SHEET
 10
20400.00
 20
22250.00
 40
0.00
 41
0.00
  0
VERTEX
  8
SHEET
 10
20400.00
 20
22250.00
  0
SEQEND
  8
SHEET
  0
POLYLINE
  8
SHEET
 66
     1
 10
0.00
 20
0.00
 40
0.00
 41
0.00
  0
VERTEX
  8
SHEET
 10
20450.00
 20
22300.00
 40
0.00
 41
0.00
  0
VERTEX
  8
SHEET
 10
20425.00
 20
22250.00
 40
0.00
 41
0.00
  0
VERTEX
  8
SHEET
 10
20425.00
 20
22250.00
  0
SEQEND
  8
SHEET
  0
POLYLINE
  8
SHEET
 66
     1
 10
0.00
 20
0.00
 40
0.00
 41
0.00
  0
VERTEX
  8
SHEET
 10
20475.00
 20
22300.00
 40
0.00
 41
0.00
  0
VERTEX
  8
SHEET
 10
20450.00
 20
22250.00
 40
0.00
 41
0.00
  0
VERTEX
  8
SHEET
 10
20450.00
 20
22250.00
  0
SEQEND
  8
SHEET
  0
TEXT
  8
SHEET
 62
     5
 10
20400.00
 20
22175.00
 40
50.00
  1
TP5
  0
INSERT
  8
SHEET
  2
2
 10
20550.00
 20
24200.00
 50
270.000
  0
TEXT
  8
SHEET
 62
    145
 10
20475.00
 20
24125.00
 40
50.00
  1
1
 72
     2
 11
20525.00
 21
24125.00
  0
POLYLINE
  8
SHEET
 66
     1
 10
0.00
 20
0.00
 40
0.00
 41
0.00
  0
VERTEX
  8
SHEET
 10
20550.00
 20
24200.00
 40
0.00
 41
0.00
  0
VERTEX
  8
SHEET
 10
20550.00
 20
24050.00
 40
0.00
 41
0.00
  0
VERTEX
  8
SHEET
 10
20550.00
 20
24050.00
  0
SEQEND
  8
SHEET
  0
POLYLINE
  8
SHEET
 66
     1
 10
0.00
 20
0.00
 40
0.00
 41
0.00
  0
VERTEX
  8
SHEET
 10
20475.00
 20
24000.00
 40
0.00
 41
0.00
  0
VERTEX
  8
SHEET
 10
20500.00
 20
24050.00
  0
VERTEX
  8
SHEET
 10
20500.00
 20
24050.00
 40
0.00
 41
0.00
  0
VERTEX
  8
SHEET
 10
20600.00
 20
24050.00
  0
VERTEX
  8
SHEET
 10
20600.00
 20
24050.00
 40
0.00
 41
0.00
  0
VERTEX
  8
SHEET
 10
20575.00
 20
24000.00
 40
0.00
 41
0.00
  0
VERTEX
  8
SHEET
 10
20575.00
 20
24000.00
  0
SEQEND
  8
SHEET
  0
POLYLINE
  8
SHEET
 66
     1
 10
0.00
 20
0.00
 40
0.00
 41
0.00
  0
VERTEX
  8
SHEET
 10
20525.00
 20
24050.00
 40
0.00
 41
0.00
  0
VERTEX
  8
SHEET
 10
20500.00
 20
24000.00
 40
0.00
 41
0.00
  0
VERTEX
  8
SHEET
 10
20500.00
 20
24000.00
  0
SEQEND
  8
SHEET
  0
POLYLINE
  8
SHEET
 66
     1
 10
0.00
 20
0.00
 40
0.00
 41
0.00
  0
VERTEX
  8
SHEET
 10
20550.00
 20
24050.00
 40
0.00
 41
0.00
  0
VERTEX
  8
SHEET
 10
20525.00
 20
24000.00
 40
0.00
 41
0.00
  0
VERTEX
  8
SHEET
 10
20525.00
 20
24000.00
  0
SEQEND
  8
SHEET
  0
POLYLINE
  8
SHEET
 66
     1
 10
0.00
 20
0.00
 40
0.00
 41
0.00
  0
VERTEX
  8
SHEET
 10
20575.00
 20
24050.00
 40
0.00
 41
0.00
  0
VERTEX
  8
SHEET
 10
20550.00
 20
24000.00
 40
0.00
 41
0.00
  0
VERTEX
  8
SHEET
 10
20550.00
 20
24000.00
  0
SEQEND
  8
SHEET
  0
TEXT
  8
SHEET
 62
     5
 10
20500.00
 20
23925.00
 40
50.00
  1
TP6
  0
INSERT
  8
SHEET
  2
2
 10
22550.00
 20
19900.00
 50
270.000
  0
TEXT
  8
SHEET
 62
    145
 10
22475.00
 20
19825.00
 40
50.00
  1
1
 72
     2
 11
22525.00
 21
19825.00
  0
POLYLINE
  8
SHEET
 66
     1
 10
0.00
 20
0.00
 40
0.00
 41
0.00
  0
VERTEX
  8
SHEET
 10
22550.00
 20
19900.00
 40
0.00
 41
0.00
  0
VERTEX
  8
SHEET
 10
22550.00
 20
19750.00
 40
0.00
 41
0.00
  0
VERTEX
  8
SHEET
 10
22550.00
 20
19750.00
  0
SEQEND
  8
SHEET
  0
POLYLINE
  8
SHEET
 66
     1
 10
0.00
 20
0.00
 40
0.00
 41
0.00
  0
VERTEX
  8
SHEET
 10
22475.00
 20
19700.00
 40
0.00
 41
0.00
  0
VERTEX
  8
SHEET
 10
22500.00
 20
19750.00
  0
VERTEX
  8
SHEET
 10
22500.00
 20
19750.00
 40
0.00
 41
0.00
  0
VERTEX
  8
SHEET
 10
22600.00
 20
19750.00
  0
VERTEX
  8
SHEET
 10
22600.00
 20
19750.00
 40
0.00
 41
0.00
  0
VERTEX
  8
SHEET
 10
22575.00
 20
19700.00
 40
0.00
 41
0.00
  0
VERTEX
  8
SHEET
 10
22575.00
 20
19700.00
  0
SEQEND
  8
SHEET
  0
POLYLINE
  8
SHEET
 66
     1
 10
0.00
 20
0.00
 40
0.00
 41
0.00
  0
VERTEX
  8
SHEET
 10
22525.00
 20
19750.00
 40
0.00
 41
0.00
  0
VERTEX
  8
SHEET
 10
22500.00
 20
19700.00
 40
0.00
 41
0.00
  0
VERTEX
  8
SHEET
 10
22500.00
 20
19700.00
  0
SEQEND
  8
SHEET
  0
POLYLINE
  8
SHEET
 66
     1
 10
0.00
 20
0.00
 40
0.00
 41
0.00
  0
VERTEX
  8
SHEET
 10
22550.00
 20
19750.00
 40
0.00
 41
0.00
  0
VERTEX
  8
SHEET
 10
22525.00
 20
19700.00
 40
0.00
 41
0.00
  0
VERTEX
  8
SHEET
 10
22525.00
 20
19700.00
  0
SEQEND
  8
SHEET
  0
POLYLINE
  8
SHEET
 66
     1
 10
0.00
 20
0.00
 40
0.00
 41
0.00
  0
VERTEX
  8
SHEET
 10
22575.00
 20
19750.00
 40
0.00
 41
0.00
  0
VERTEX
  8
SHEET
 10
22550.00
 20
19700.00
 40
0.00
 41
0.00
  0
VERTEX
  8
SHEET
 10
22550.00
 20
19700.00
  0
SEQEND
  8
SHEET
  0
TEXT
  8
SHEET
 62
     5
 10
22500.00
 20
19625.00
 40
50.00
  1
TP7
  0
INSERT
  8
SHEET
  2
2
 10
22400.00
 20
21050.00
 50
270.000
  0
TEXT
  8
SHEET
 62
    145
 10
22325.00
 20
20975.00
 40
50.00
  1
1
 72
     2
 11
22375.00
 21
20975.00
  0
POLYLINE
  8
SHEET
 66
     1
 10
0.00
 20
0.00
 40
0.00
 41
0.00
  0
VERTEX
  8
SHEET
 10
22400.00
 20
21050.00
 40
0.00
 41
0.00
  0
VERTEX
  8
SHEET
 10
22400.00
 20
20900.00
 40
0.00
 41
0.00
  0
VERTEX
  8
SHEET
 10
22400.00
 20
20900.00
  0
SEQEND
  8
SHEET
  0
POLYLINE
  8
SHEET
 66
     1
 10
0.00
 20
0.00
 40
0.00
 41
0.00
  0
VERTEX
  8
SHEET
 10
22325.00
 20
20850.00
 40
0.00
 41
0.00
  0
VERTEX
  8
SHEET
 10
22350.00
 20
20900.00
  0
VERTEX
  8
SHEET
 10
22350.00
 20
20900.00
 40
0.00
 41
0.00
  0
VERTEX
  8
SHEET
 10
22450.00
 20
20900.00
  0
VERTEX
  8
SHEET
 10
22450.00
 20
20900.00
 40
0.00
 41
0.00
  0
VERTEX
  8
SHEET
 10
22425.00
 20
20850.00
 40
0.00
 41
0.00
  0
VERTEX
  8
SHEET
 10
22425.00
 20
20850.00
  0
SEQEND
  8
SHEET
  0
POLYLINE
  8
SHEET
 66
     1
 10
0.00
 20
0.00
 40
0.00
 41
0.00
  0
VERTEX
  8
SHEET
 10
22375.00
 20
20900.00
 40
0.00
 41
0.00
  0
VERTEX
  8
SHEET
 10
22350.00
 20
20850.00
 40
0.00
 41
0.00
  0
VERTEX
  8
SHEET
 10
22350.00
 20
20850.00
  0
SEQEND
  8
SHEET
  0
POLYLINE
  8
SHEET
 66
     1
 10
0.00
 20
0.00
 40
0.00
 41
0.00
  0
VERTEX
  8
SHEET
 10
22400.00
 20
20900.00
 40
0.00
 41
0.00
  0
VERTEX
  8
SHEET
 10
22375.00
 20
20850.00
 40
0.00
 41
0.00
  0
VERTEX
  8
SHEET
 10
22375.00
 20
20850.00
  0
SEQEND
  8
SHEET
  0
POLYLINE
  8
SHEET
 66
     1
 10
0.00
 20
0.00
 40
0.00
 41
0.00
  0
VERTEX
  8
SHEET
 10
22425.00
 20
20900.00
 40
0.00
 41
0.00
  0
VERTEX
  8
SHEET
 10
22400.00
 20
20850.00
 40
0.00
 41
0.00
  0
VERTEX
  8
SHEET
 10
22400.00
 20
20850.00
  0
SEQEND
  8
SHEET
  0
TEXT
  8
SHEET
 62
     5
 10
22350.00
 20
20775.00
 40
50.00
  1
TP8
  0
INSERT
  8
SHEET
  2
2
 10
22100.00
 20
25250.00
 50
270.000
  0
TEXT
  8
SHEET
 62
    145
 10
22025.00
 20
25175.00
 40
50.00
  1
1
 72
     2
 11
22075.00
 21
25175.00
  0
POLYLINE
  8
SHEET
 66
     1
 10
0.00
 20
0.00
 40
0.00
 41
0.00
  0
VERTEX
  8
SHEET
 10
22100.00
 20
25250.00
 40
0.00
 41
0.00
  0
VERTEX
  8
SHEET
 10
22100.00
 20
25100.00
 40
0.00
 41
0.00
  0
VERTEX
  8
SHEET
 10
22100.00
 20
25100.00
  0
SEQEND
  8
SHEET
  0
POLYLINE
  8
SHEET
 66
     1
 10
0.00
 20
0.00
 40
0.00
 41
0.00
  0
VERTEX
  8
SHEET
 10
22025.00
 20
25050.00
 40
0.00
 41
0.00
  0
VERTEX
  8
SHEET
 10
22050.00
 20
25100.00
  0
VERTEX
  8
SHEET
 10
22050.00
 20
25100.00
 40
0.00
 41
0.00
  0
VERTEX
  8
SHEET
 10
22150.00
 20
25100.00
  0
VERTEX
  8
SHEET
 10
22150.00
 20
25100.00
 40
0.00
 41
0.00
  0
VERTEX
  8
SHEET
 10
22125.00
 20
25050.00
 40
0.00
 41
0.00
  0
VERTEX
  8
SHEET
 10
22125.00
 20
25050.00
  0
SEQEND
  8
SHEET
  0
POLYLINE
  8
SHEET
 66
     1
 10
0.00
 20
0.00
 40
0.00
 41
0.00
  0
VERTEX
  8
SHEET
 10
22075.00
 20
25100.00
 40
0.00
 41
0.00
  0
VERTEX
  8
SHEET
 10
22050.00
 20
25050.00
 40
0.00
 41
0.00
  0
VERTEX
  8
SHEET
 10
22050.00
 20
25050.00
  0
SEQEND
  8
SHEET
  0
POLYLINE
  8
SHEET
 66
     1
 10
0.00
 20
0.00
 40
0.00
 41
0.00
  0
VERTEX
  8
SHEET
 10
22100.00
 20
25100.00
 40
0.00
 41
0.00
  0
VERTEX
  8
SHEET
 10
22075.00
 20
25050.00
 40
0.00
 41
0.00
  0
VERTEX
  8
SHEET
 10
22075.00
 20
25050.00
  0
SEQEND
  8
SHEET
  0
POLYLINE
  8
SHEET
 66
     1
 10
0.00
 20
0.00
 40
0.00
 41
0.00
  0
VERTEX
  8
SHEET
 10
22125.00
 20
25100.00
 40
0.00
 41
0.00
  0
VERTEX
  8
SHEET
 10
22100.00
 20
25050.00
 40
0.00
 41
0.00
  0
VERTEX
  8
SHEET
 10
22100.00
 20
25050.00
  0
SEQEND
  8
SHEET
  0
TEXT
  8
SHEET
 62
     5
 10
22050.00
 20
24975.00
 40
50.00
  1
TP9
  0
INSERT
  8
SHEET
  2
2
 10
22050.00
 20
23050.00
 50
270.000
  0
TEXT
  8
SHEET
 62
    145
 10
21975.00
 20
22975.00
 40
50.00
  1
1
 72
     2
 11
22025.00
 21
22975.00
  0
POLYLINE
  8
SHEET
 66
     1
 10
0.00
 20
0.00
 40
0.00
 41
0.00
  0
VERTEX
  8
SHEET
 10
22050.00
 20
23050.00
 40
0.00
 41
0.00
  0
VERTEX
  8
SHEET
 10
22050.00
 20
22900.00
 40
0.00
 41
0.00
  0
VERTEX
  8
SHEET
 10
22050.00
 20
22900.00
  0
SEQEND
  8
SHEET
  0
POLYLINE
  8
SHEET
 66
     1
 10
0.00
 20
0.00
 40
0.00
 41
0.00
  0
VERTEX
  8
SHEET
 10
21975.00
 20
22850.00
 40
0.00
 41
0.00
  0
VERTEX
  8
SHEET
 10
22000.00
 20
22900.00
  0
VERTEX
  8
SHEET
 10
22000.00
 20
22900.00
 40
0.00
 41
0.00
  0
VERTEX
  8
SHEET
 10
22100.00
 20
22900.00
  0
VERTEX
  8
SHEET
 10
22100.00
 20
22900.00
 40
0.00
 41
0.00
  0
VERTEX
  8
SHEET
 10
22075.00
 20
22850.00
 40
0.00
 41
0.00
  0
VERTEX
  8
SHEET
 10
22075.00
 20
22850.00
  0
SEQEND
  8
SHEET
  0
POLYLINE
  8
SHEET
 66
     1
 10
0.00
 20
0.00
 40
0.00
 41
0.00
  0
VERTEX
  8
SHEET
 10
22025.00
 20
22900.00
 40
0.00
 41
0.00
  0
VERTEX
  8
SHEET
 10
22000.00
 20
22850.00
 40
0.00
 41
0.00
  0
VERTEX
  8
SHEET
 10
22000.00
 20
22850.00
  0
SEQEND
  8
SHEET
  0
POLYLINE
  8
SHEET
 66
     1
 10
0.00
 20
0.00
 40
0.00
 41
0.00
  0
VERTEX
  8
SHEET
 10
22050.00
 20
22900.00
 40
0.00
 41
0.00
  0
VERTEX
  8
SHEET
 10
22025.00
 20
22850.00
 40
0.00
 41
0.00
  0
VERTEX
  8
SHEET
 10
22025.00
 20
22850.00
  0
SEQEND
  8
SHEET
  0
POLYLINE
  8
SHEET
 66
     1
 10
0.00
 20
0.00
 40
0.00
 41
0.00
  0
VERTEX
  8
SHEET
 10
22075.00
 20
22900.00
 40
0.00
 41
0.00
  0
VERTEX
  8
SHEET
 10
22050.00
 20
22850.00
 40
0.00
 41
0.00
  0
VERTEX
  8
SHEET
 10
22050.00
 20
22850.00
  0
SEQEND
  8
SHEET
  0
TEXT
  8
SHEET
 62
     5
 10
22000.00
 20
22775.00
 40
50.00
  1
TP10
  0
INSERT
  8
SHEET
  2
2
 10
17850.00
 20
19850.00
 50
270.000
  0
TEXT
  8
SHEET
 62
    54
 10
17675.00
 20
19775.00
 40
50.00
  1
PRIMS
 72
     2
 11
17925.00
 21
19775.00
  0
TEXT
  8
SHEET
 62
    145
 10
17875.00
 20
19875.00
 40
50.00
  1
1
 72
     2
 11
17925.00
 21
19875.00
  0
INSERT
  8
SHEET
  2
2
 10
17850.00
 20
19450.00
 50
270.000
  0
TEXT
  8
SHEET
 62
    54
 10
17675.00
 20
19375.00
 40
50.00
  1
PRIMF
 72
     2
 11
17925.00
 21
19375.00
  0
TEXT
  8
SHEET
 62
    145
 10
17875.00
 20
19475.00
 40
50.00
  1
2
 72
     2
 11
17925.00
 21
19475.00
  0
INSERT
  8
SHEET
  2
2
 10
18250.00
 20
19850.00
 50
270.000
  0
TEXT
  8
SHEET
 62
    54
 10
18175.00
 20
19775.00
 40
50.00
  1
SECS
  0
TEXT
  8
SHEET
 62
    145
 10
18175.00
 20
19875.00
 40
50.00
  1
4
  0
INSERT
  8
SHEET
  2
2
 10
18250.00
 20
19450.00
 50
270.000
  0
TEXT
  8
SHEET
 62
    54
 10
18175.00
 20
19375.00
 40
50.00
  1
SECF
  0
TEXT
  8
SHEET
 62
    145
 10
18175.00
 20
19475.00
 40
50.00
  1
3
  0
POLYLINE
  8
SHEET
 66
     1
 10
0.00
 20
0.00
 40
0.00
 41
0.00
  0
VERTEX
  8
SHEET
 10
17850.00
 20
19850.00
 40
0.00
 41
0.00
  0
VERTEX
  8
SHEET
 10
17950.00
 20
19850.00
  0
VERTEX
  8
SHEET
 10
17950.00
 20
19850.00
 40
0.00
 41
0.00
 42
-0.414
  0
VERTEX
  8
SHEET
 10
18000.00
 20
19800.00
  0
VERTEX
  8
SHEET
 10
18000.00
 20
19800.00
 40
0.00
 41
0.00
 42
-0.414
  0
VERTEX
  8
SHEET
 10
17950.00
 20
19750.00
  0
VERTEX
  8
SHEET
 10
17950.00
 20
19750.00
 40
0.00
 41
0.00
 42
-0.414
  0
VERTEX
  8
SHEET
 10
18000.00
 20
19700.00
  0
VERTEX
  8
SHEET
 10
18000.00
 20
19700.00
 40
0.00
 41
0.00
 42
-0.414
  0
VERTEX
  8
SHEET
 10
17950.00
 20
19650.00
  0
VERTEX
  8
SHEET
 10
17950.00
 20
19650.00
 40
0.00
 41
0.00
 42
-0.414
  0
VERTEX
  8
SHEET
 10
18000.00
 20
19600.00
  0
VERTEX
  8
SHEET
 10
18000.00
 20
19600.00
 40
0.00
 41
0.00
 42
-0.414
  0
VERTEX
  8
SHEET
 10
17950.00
 20
19550.00
  0
VERTEX
  8
SHEET
 10
17950.00
 20
19550.00
 40
0.00
 41
0.00
 42
-0.414
  0
VERTEX
  8
SHEET
 10
18000.00
 20
19500.00
  0
VERTEX
  8
SHEET
 10
18000.00
 20
19500.00
 40
0.00
 41
0.00
 42
-0.414
  0
VERTEX
  8
SHEET
 10
17950.00
 20
19450.00
  0
VERTEX
  8
SHEET
 10
17950.00
 20
19450.00
 40
0.00
 41
0.00
  0
VERTEX
  8
SHEET
 10
17850.00
 20
19450.00
 40
0.00
 41
0.00
  0
VERTEX
  8
SHEET
 10
17850.00
 20
19450.00
  0
SEQEND
  8
SHEET
  0
POLYLINE
  8
SHEET
 66
     1
 10
0.00
 20
0.00
 40
0.00
 41
0.00
  0
VERTEX
  8
SHEET
 10
18250.00
 20
19850.00
 40
0.00
 41
0.00
  0
VERTEX
  8
SHEET
 10
18150.00
 20
19850.00
  0
VERTEX
  8
SHEET
 10
18150.00
 20
19850.00
 40
0.00
 41
0.00
 42
0.414
  0
VERTEX
  8
SHEET
 10
18100.00
 20
19800.00
  0
VERTEX
  8
SHEET
 10
18100.00
 20
19800.00
 40
0.00
 41
0.00
 42
0.414
  0
VERTEX
  8
SHEET
 10
18150.00
 20
19750.00
  0
VERTEX
  8
SHEET
 10
18150.00
 20
19750.00
 40
0.00
 41
0.00
 42
0.414
  0
VERTEX
  8
SHEET
 10
18100.00
 20
19700.00
  0
VERTEX
  8
SHEET
 10
18100.00
 20
19700.00
 40
0.00
 41
0.00
 42
0.414
  0
VERTEX
  8
SHEET
 10
18150.00
 20
19650.00
  0
VERTEX
  8
SHEET
 10
18150.00
 20
19650.00
 40
0.00
 41
0.00
 42
0.414
  0
VERTEX
  8
SHEET
 10
18100.00
 20
19600.00
  0
VERTEX
  8
SHEET
 10
18100.00
 20
19600.00
 40
0.00
 41
0.00
 42
0.414
  0
VERTEX
  8
SHEET
 10
18150.00
 20
19550.00
  0
VERTEX
  8
SHEET
 10
18150.00
 20
19550.00
 40
0.00
 41
0.00
 42
0.414
  0
VERTEX
  8
SHEET
 10
18100.00
 20
19500.00
  0
VERTEX
  8
SHEET
 10
18100.00
 20
19500.00
 40
0.00
 41
0.00
 42
0.414
  0
VERTEX
  8
SHEET
 10
18150.00
 20
19450.00
  0
VERTEX
  8
SHEET
 10
18150.00
 20
19450.00
 40
0.00
 41
0.00
  0
VERTEX
  8
SHEET
 10
18250.00
 20
19450.00
 40
0.00
 41
0.00
  0
VERTEX
  8
SHEET
 10
18250.00
 20
19450.00
  0
SEQEND
  8
SHEET
  0
TEXT
  8
SHEET
 62
     5
 10
17975.00
 20
19325.00
 40
50.00
  1
T6
  0
INSERT
  8
SHEET
  2
2
 10
18850.00
 20
20000.00
 50
270.000
  0
INSERT
  8
SHEET
  2
2
 10
19200.00
 20
20000.00
 50
270.000
  0
POLYLINE
  8
SHEET
 66
     1
 10
0.00
 20
0.00
 70
     1
 40
0.00
 41
0.00
  0
VERTEX
  8
SHEET
 10
18950.00
 20
19900.00
 40
0.00
 41
0.00
  0
VERTEX
  8
SHEET
 10
18950.00
 20
20100.00
  0
VERTEX
  8
SHEET
 10
18950.00
 20
20100.00
 40
0.00
 41
0.00
  0
VERTEX
  8
SHEET
 10
19100.00
 20
20000.00
  0
VERTEX
  8
SHEET
 10
19100.00
 20
20000.00
 40
0.00
 41
0.00
  0
VERTEX
  8
SHEET
 10
18950.00
 20
19900.00
 40
0.00
 41
0.00
  0
VERTEX
  8
SHEET
 10
18950.00
 20
19900.00
  0
SEQEND
  8
SHEET
  0
POLYLINE
  8
SHEET
 66
     1
 10
0.00
 20
0.00
 40
0.00
 41
0.00
  0
VERTEX
  8
SHEET
 10
19100.00
 20
20100.00
 40
0.00
 41
0.00
  0
VERTEX
  8
SHEET
 10
19100.00
 20
19900.00
 40
0.00
 41
0.00
  0
VERTEX
  8
SHEET
 10
19100.00
 20
19900.00
  0
SEQEND
  8
SHEET
  0
POLYLINE
  8
SHEET
 66
     1
 10
0.00
 20
0.00
 40
0.00
 41
0.00
  0
VERTEX
  8
SHEET
 10
18850.00
 20
20000.00
 40
0.00
 41
0.00
  0
VERTEX
  8
SHEET
 10
18950.00
 20
20000.00
 40
0.00
 41
0.00
  0
VERTEX
  8
SHEET
 10
18950.00
 20
20000.00
  0
SEQEND
  8
SHEET
  0
POLYLINE
  8
SHEET
 66
     1
 10
0.00
 20
0.00
 40
0.00
 41
0.00
  0
VERTEX
  8
SHEET
 10
19100.00
 20
20000.00
 40
0.00
 41
0.00
  0
VERTEX
  8
SHEET
 10
19200.00
 20
20000.00
 40
0.00
 41
0.00
  0
VERTEX
  8
SHEET
 10
19200.00
 20
20000.00
  0
SEQEND
  8
SHEET
  0
INSERT
  8
SHEET
  2
2
 10
19350.00
 20
19300.00
  0
INSERT
  8
SHEET
  2
2
 10
19350.00
 20
19650.00
  0
POLYLINE
  8
SHEET
 66
     1
 10
0.00
 20
0.00
 70
     1
 40
0.00
 41
0.00
  0
VERTEX
  8
SHEET
 10
19450.00
 20
19400.00
 40
0.00
 41
0.00
  0
VERTEX
  8
SHEET
 10
19250.00
 20
19400.00
  0
VERTEX
  8
SHEET
 10
19250.00
 20
19400.00
 40
0.00
 41
0.00
  0
VERTEX
  8
SHEET
 10
19350.00
 20
19550.00
  0
VERTEX
  8
SHEET
 10
19350.00
 20
19550.00
 40
0.00
 41
0.00
  0
VERTEX
  8
SHEET
 10
19450.00
 20
19400.00
 40
0.00
 41
0.00
  0
VERTEX
  8
SHEET
 10
19450.00
 20
19400.00
  0
SEQEND
  8
SHEET
  0
POLYLINE
  8
SHEET
 66
     1
 10
0.00
 20
0.00
 40
0.00
 41
0.00
  0
VERTEX
  8
SHEET
 10
19250.00
 20
19550.00
 40
0.00
 41
0.00
  0
VERTEX
  8
SHEET
 10
19450.00
 20
19550.00
 40
0.00
 41
0.00
  0
VERTEX
  8
SHEET
 10
19450.00
 20
19550.00
  0
SEQEND
  8
SHEET
  0
POLYLINE
  8
SHEET
 66
     1
 10
0.00
 20
0.00
 40
0.00
 41
0.00
  0
VERTEX
  8
SHEET
 10
19350.00
 20
19300.00
 40
0.00
 41
0.00
  0
VERTEX
  8
SHEET
 10
19350.00
 20
19400.00
 40
0.00
 41
0.00
  0
VERTEX
  8
SHEET
 10
19350.00
 20
19400.00
  0
SEQEND
  8
SHEET
  0
POLYLINE
  8
SHEET
 66
     1
 10
0.00
 20
0.00
 40
0.00
 41
0.00
  0
VERTEX
  8
SHEET
 10
19350.00
 20
19550.00
 40
0.00
 41
0.00
  0
VERTEX
  8
SHEET
 10
19350.00
 20
19650.00
 40
0.00
 41
0.00
  0
VERTEX
  8
SHEET
 10
19350.00
 20
19650.00
  0
SEQEND
  8
SHEET
  0
INSERT
  8
SHEET
  2
2
 10
19250.00
 20
19150.00
 50
90.000
  0
INSERT
  8
SHEET
  2
2
 10
18900.00
 20
19150.00
 50
90.000
  0
POLYLINE
  8
SHEET
 66
     1
 10
0.00
 20
0.00
 70
     1
 40
0.00
 41
0.00
  0
VERTEX
  8
SHEET
 10
19150.00
 20
19250.00
 40
0.00
 41
0.00
  0
VERTEX
  8
SHEET
 10
19150.00
 20
19050.00
  0
VERTEX
  8
SHEET
 10
19150.00
 20
19050.00
 40
0.00
 41
0.00
  0
VERTEX
  8
SHEET
 10
19000.00
 20
19150.00
  0
VERTEX
  8
SHEET
 10
19000.00
 20
19150.00
 40
0.00
 41
0.00
  0
VERTEX
  8
SHEET
 10
19150.00
 20
19250.00
 40
0.00
 41
0.00
  0
VERTEX
  8
SHEET
 10
19150.00
 20
19250.00
  0
SEQEND
  8
SHEET
  0
POLYLINE
  8
SHEET
 66
     1
 10
0.00
 20
0.00
 40
0.00
 41
0.00
  0
VERTEX
  8
SHEET
 10
19000.00
 20
19050.00
 40
0.00
 41
0.00
  0
VERTEX
  8
SHEET
 10
19000.00
 20
19250.00
 40
0.00
 41
0.00
  0
VERTEX
  8
SHEET
 10
19000.00
 20
19250.00
  0
SEQEND
  8
SHEET
  0
POLYLINE
  8
SHEET
 66
     1
 10
0.00
 20
0.00
 40
0.00
 41
0.00
  0
VERTEX
  8
SHEET
 10
19250.00
 20
19150.00
 40
0.00
 41
0.00
  0
VERTEX
  8
SHEET
 10
19150.00
 20
19150.00
 40
0.00
 41
0.00
  0
VERTEX
  8
SHEET
 10
19150.00
 20
19150.00
  0
SEQEND
  8
SHEET
  0
POLYLINE
  8
SHEET
 66
     1
 10
0.00
 20
0.00
 40
0.00
 41
0.00
  0
VERTEX
  8
SHEET
 10
19000.00
 20
19150.00
 40
0.00
 41
0.00
  0
VERTEX
  8
SHEET
 10
18900.00
 20
19150.00
 40
0.00
 41
0.00
  0
VERTEX
  8
SHEET
 10
18900.00
 20
19150.00
  0
SEQEND
  8
SHEET
  0
INSERT
  8
SHEET
  2
2
 10
18750.00
 20
19650.00
 50
180.000
  0
INSERT
  8
SHEET
  2
2
 10
18750.00
 20
19300.00
 50
180.000
  0
POLYLINE
  8
SHEET
 66
     1
 10
0.00
 20
0.00
 70
     1
 40
0.00
 41
0.00
  0
VERTEX
  8
SHEET
 10
18650.00
 20
19550.00
 40
0.00
 41
0.00
  0
VERTEX
  8
SHEET
 10
18850.00
 20
19550.00
  0
VERTEX
  8
SHEET
 10
18850.00
 20
19550.00
 40
0.00
 41
0.00
  0
VERTEX
  8
SHEET
 10
18750.00
 20
19400.00
  0
VERTEX
  8
SHEET
 10
18750.00
 20
19400.00
 40
0.00
 41
0.00
  0
VERTEX
  8
SHEET
 10
18650.00
 20
19550.00
 40
0.00
 41
0.00
  0
VERTEX
  8
SHEET
 10
18650.00
 20
19550.00
  0
SEQEND
  8
SHEET
  0
POLYLINE
  8
SHEET
 66
     1
 10
0.00
 20
0.00
 40
0.00
 41
0.00
  0
VERTEX
  8
SHEET
 10
18850.00
 20
19400.00
 40
0.00
 41
0.00
  0
VERTEX
  8
SHEET
 10
18650.00
 20
19400.00
 40
0.00
 41
0.00
  0
VERTEX
  8
SHEET
 10
18650.00
 20
19400.00
  0
SEQEND
  8
SHEET
  0
POLYLINE
  8
SHEET
 66
     1
 10
0.00
 20
0.00
 40
0.00
 41
0.00
  0
VERTEX
  8
SHEET
 10
18750.00
 20
19650.00
 40
0.00
 41
0.00
  0
VERTEX
  8
SHEET
 10
18750.00
 20
19550.00
 40
0.00
 41
0.00
  0
VERTEX
  8
SHEET
 10
18750.00
 20
19550.00
  0
SEQEND
  8
SHEET
  0
POLYLINE
  8
SHEET
 66
     1
 10
0.00
 20
0.00
 40
0.00
 41
0.00
  0
VERTEX
  8
SHEET
 10
18750.00
 20
19400.00
 40
0.00
 41
0.00
  0
VERTEX
  8
SHEET
 10
18750.00
 20
19300.00
 40
0.00
 41
0.00
  0
VERTEX
  8
SHEET
 10
18750.00
 20
19300.00
  0
SEQEND
  8
SHEET
  0
INSERT
  8
SHEET
  2
2
 10
19350.00
 20
18900.00
 50
270.000
  0
TEXT
  8
SHEET
 62
    145
 10
19275.00
 20
18825.00
 40
50.00
  1
1
 72
     2
 11
19325.00
 21
18825.00
  0
POLYLINE
  8
SHEET
 66
     1
 10
0.00
 20
0.00
 40
0.00
 41
0.00
  0
VERTEX
  8
SHEET
 10
19350.00
 20
18900.00
 40
0.00
 41
0.00
  0
VERTEX
  8
SHEET
 10
19350.00
 20
18750.00
 40
0.00
 41
0.00
  0
VERTEX
  8
SHEET
 10
19350.00
 20
18750.00
  0
SEQEND
  8
SHEET
  0
POLYLINE
  8
SHEET
 66
     1
 10
0.00
 20
0.00
 40
0.00
 41
0.00
  0
VERTEX
  8
SHEET
 10
19275.00
 20
18700.00
 40
0.00
 41
0.00
  0
VERTEX
  8
SHEET
 10
19300.00
 20
18750.00
  0
VERTEX
  8
SHEET
 10
19300.00
 20
18750.00
 40
0.00
 41
0.00
  0
VERTEX
  8
SHEET
 10
19400.00
 20
18750.00
  0
VERTEX
  8
SHEET
 10
19400.00
 20
18750.00
 40
0.00
 41
0.00
  0
VERTEX
  8
SHEET
 10
19375.00
 20
18700.00
 40
0.00
 41
0.00
  0
VERTEX
  8
SHEET
 10
19375.00
 20
18700.00
  0
SEQEND
  8
SHEET
  0
POLYLINE
  8
SHEET
 66
     1
 10
0.00
 20
0.00
 40
0.00
 41
0.00
  0
VERTEX
  8
SHEET
 10
19325.00
 20
18750.00
 40
0.00
 41
0.00
  0
VERTEX
  8
SHEET
 10
19300.00
 20
18700.00
 40
0.00
 41
0.00
  0
VERTEX
  8
SHEET
 10
19300.00
 20
18700.00
  0
SEQEND
  8
SHEET
  0
POLYLINE
  8
SHEET
 66
     1
 10
0.00
 20
0.00
 40
0.00
 41
0.00
  0
VERTEX
  8
SHEET
 10
19350.00
 20
18750.00
 40
0.00
 41
0.00
  0
VERTEX
  8
SHEET
 10
19325.00
 20
18700.00
 40
0.00
 41
0.00
  0
VERTEX
  8
SHEET
 10
19325.00
 20
18700.00
  0
SEQEND
  8
SHEET
  0
POLYLINE
  8
SHEET
 66
     1
 10
0.00
 20
0.00
 40
0.00
 41
0.00
  0
VERTEX
  8
SHEET
 10
19375.00
 20
18750.00
 40
0.00
 41
0.00
  0
VERTEX
  8
SHEET
 10
19350.00
 20
18700.00
 40
0.00
 41
0.00
  0
VERTEX
  8
SHEET
 10
19350.00
 20
18700.00
  0
SEQEND
  8
SHEET
  0
TEXT
  8
SHEET
 62
     5
 10
19300.00
 20
18625.00
 40
50.00
  1
TP11
  0
TEXT
  8
SHEET
 62
     5
 10
19300.00
 20
18565.00
 40
50.00
  1
EARTH
  0
INSERT
  8
SHEET
  2
2
 10
21050.00
 20
19650.00
 50
270.000
  0
TEXT
  8
SHEET
 62
    54
 10
21075.00
 20
19550.00
 40
50.00
  1
C
  0
TEXT
  8
SHEET
 62
    145
 10
21075.00
 20
19700.00
 40
50.00
  1
2
  0
INSERT
  8
SHEET
  2
2
 10
21450.00
 20
19850.00
 50
270.000
  0
TEXT
  8
SHEET
 62
    54
 10
21375.00
 20
19675.00
 40
50.00
  1
NC
  0
TEXT
  8
SHEET
 62
    145
 10
21350.00
 20
19775.00
 40
50.00
  1
1
 72
     2
 11
21400.00
 21
19775.00
  0
INSERT
  8
SHEET
  2
2
 10
21450.00
 20
19450.00
 50
270.000
  0
TEXT
  8
SHEET
 62
    54
 10
21375.00
 20
19550.00
 40
50.00
  1
NO
  0
TEXT
  8
SHEET
 62
    145
 10
21350.00
 20
19475.00
 40
50.00
  1
3
 72
     2
 11
21400.00
 21
19475.00
  0
POLYLINE
  8
SHEET
 66
     1
 10
0.00
 20
0.00
 40
0.00
 41
0.00
  0
VERTEX
  8
SHEET
 10
21450.00
 20
19825.00
 40
0.00
 41
0.00
 42
0.414
  0
VERTEX
  8
SHEET
 10
21425.00
 20
19800.00
  0
VERTEX
  8
SHEET
 10
21425.00
 20
19800.00
 40
0.00
 41
0.00
 42
0.414
  0
VERTEX
  8
SHEET
 10
21450.00
 20
19775.00
  0
VERTEX
  8
SHEET
 10
21450.00
 20
19775.00
 40
0.00
 41
0.00
 42
0.414
  0
VERTEX
  8
SHEET
 10
21475.00
 20
19800.00
  0
VERTEX
  8
SHEET
 10
21475.00
 20
19800.00
 40
0.00
 41
0.00
 42
0.414
  0
VERTEX
  8
SHEET
 10
21450.00
 20
19825.00
  0
VERTEX
  8
SHEET
 10
21450.00
 20
19825.00
 40
0.00
 41
0.00
  0
VERTEX
  8
SHEET
 10
21450.00
 20
19850.00
 40
0.00
 41
0.00
  0
VERTEX
  8
SHEET
 10
21450.00
 20
19850.00
  0
SEQEND
  8
SHEET
  0
POLYLINE
  8
SHEET
 66
     1
 10
0.00
 20
0.00
 40
0.00
 41
0.00
  0
VERTEX
  8
SHEET
 10
21450.00
 20
19475.00
 40
0.00
 41
0.00
 42
0.414
  0
VERTEX
  8
SHEET
 10
21475.00
 20
19500.00
  0
VERTEX
  8
SHEET
 10
21475.00
 20
19500.00
 40
0.00
 41
0.00
 42
0.414
  0
VERTEX
  8
SHEET
 10
21450.00
 20
19525.00
  0
VERTEX
  8
SHEET
 10
21450.00
 20
19525.00
 40
0.00
 41
0.00
 42
0.414
  0
VERTEX
  8
SHEET
 10
21425.00
 20
19500.00
  0
VERTEX
  8
SHEET
 10
21425.00
 20
19500.00
 40
0.00
 41
0.00
 42
0.414
  0
VERTEX
  8
SHEET
 10
21450.00
 20
19475.00
  0
VERTEX
  8
SHEET
 10
21450.00
 20
19475.00
 40
0.00
 41
0.00
  0
VERTEX
  8
SHEET
 10
21450.00
 20
19450.00
 40
0.00
 41
0.00
  0
VERTEX
  8
SHEET
 10
21450.00
 20
19450.00
  0
SEQEND
  8
SHEET
  0
POLYLINE
  8
SHEET
 66
     1
 10
0.00
 20
0.00
 40
0.00
 41
0.00
  0
VERTEX
  8
SHEET
 10
21075.00
 20
19650.00
 40
0.00
 41
0.00
 42
0.414
  0
VERTEX
  8
SHEET
 10
21100.00
 20
19625.00
  0
VERTEX
  8
SHEET
 10
21100.00
 20
19625.00
 40
0.00
 41
0.00
 42
0.414
  0
VERTEX
  8
SHEET
 10
21125.00
 20
19650.00
  0
VERTEX
  8
SHEET
 10
21125.00
 20
19650.00
 40
0.00
 41
0.00
 42
0.414
  0
VERTEX
  8
SHEET
 10
21100.00
 20
19675.00
  0
VERTEX
  8
SHEET
 10
21100.00
 20
19675.00
 40
0.00
 41
0.00
 42
0.414
  0
VERTEX
  8
SHEET
 10
21075.00
 20
19650.00
  0
VERTEX
  8
SHEET
 10
21075.00
 20
19650.00
 40
0.00
 41
0.00
  0
VERTEX
  8
SHEET
 10
21050.00
 20
19650.00
 40
0.00
 41
0.00
  0
VERTEX
  8
SHEET
 10
21050.00
 20
19650.00
  0
SEQEND
  8
SHEET
  0
POLYLINE
  8
SHEET
 66
     1
 10
0.00
 20
0.00
 40
0.00
 41
0.00
  0
VERTEX
  8
SHEET
 10
21450.00
 20
19800.00
 40
0.00
 41
0.00
  0
VERTEX
  8
SHEET
 10
21449.00
 20
19800.00
 40
0.00
 41
0.00
  0
VERTEX
  8
SHEET
 10
21449.00
 20
19800.00
  0
SEQEND
  8
SHEET
  0
POLYLINE
  8
SHEET
 66
     1
 10
0.00
 20
0.00
 40
0.00
 41
0.00
  0
VERTEX
  8
SHEET
 10
21123.00
 20
19658.00
 40
0.00
 41
0.00
  0
VERTEX
  8
SHEET
 10
21500.00
 20
19790.00
 40
0.00
 41
0.00
  0
VERTEX
  8
SHEET
 10
21500.00
 20
19790.00
  0
SEQEND
  8
SHEET
  0
TEXT
  8
SHEET
 62
     5
 10
21850.00
 20
19550.00
 40
50.00
  1
SW2
  0
TEXT
  8
SHEET
 62
     5
 10
21850.00
 20
19490.00
 40
50.00
  1
SPDT
  0
INSERT
  8
SHEET
  2
2
 10
16600.00
 20
24550.00
  0
INSERT
  8
SHEET
  2
2
 10
16600.00
 20
25050.00
  0
POLYLINE
  8
SHEET
 66
     1
 10
0.00
 20
0.00
 40
0.00
 41
0.00
  0
VERTEX
  8
SHEET
 10
16600.00
 20
24650.00
 40
0.00
 41
0.00
 42
-0.414
  0
VERTEX
  8
SHEET
 10
16550.00
 20
24700.00
  0
VERTEX
  8
SHEET
 10
16550.00
 20
24700.00
 40
0.00
 41
0.00
 42
-0.414
  0
VERTEX
  8
SHEET
 10
16600.00
 20
24750.00
  0
VERTEX
  8
SHEET
 10
16600.00
 20
24750.00
 40
0.00
 41
0.00
 42
-0.414
  0
VERTEX
  8
SHEET
 10
16550.00
 20
24800.00
  0
VERTEX
  8
SHEET
 10
16550.00
 20
24800.00
 40
0.00
 41
0.00
 42
-0.414
  0
VERTEX
  8
SHEET
 10
16600.00
 20
24850.00
  0
VERTEX
  8
SHEET
 10
16600.00
 20
24850.00
 40
0.00
 41
0.00
 42
-0.414
  0
VERTEX
  8
SHEET
 10
16550.00
 20
24900.00
  0
VERTEX
  8
SHEET
 10
16550.00
 20
24900.00
 40
0.00
 41
0.00
 42
-0.414
  0
VERTEX
  8
SHEET
 10
16600.00
 20
24950.00
  0
VERTEX
  8
SHEET
 10
16600.00
 20
24950.00
 40
0.00
 41
0.00
  0
VERTEX
  8
SHEET
 10
16600.00
 20
25050.00
 40
0.00
 41
0.00
  0
VERTEX
  8
SHEET
 10
16600.00
 20
25050.00
  0
SEQEND
  8
SHEET
  0
POLYLINE
  8
SHEET
 66
     1
 10
0.00
 20
0.00
 40
0.00
 41
0.00
  0
VERTEX
  8
SHEET
 10
16600.00
 20
24550.00
 40
0.00
 41
0.00
  0
VERTEX
  8
SHEET
 10
16600.00
 20
24650.00
 40
0.00
 41
0.00
  0
VERTEX
  8
SHEET
 10
16600.00
 20
24650.00
  0
SEQEND
  8
SHEET
  0
TEXT
  8
SHEET
 62
     5
 10
16725.00
 20
24725.00
 40
50.00
  1
SW3a
 50
90.000
  0
TEXT
  8
SHEET
 62
     5
 10
16785.00
 20
24725.00
 40
50.00
  1
SSRelay
 50
90.000
  0
INSERT
  8
SHEET
  2
2
 10
16350.00
 20
24700.00
  0
INSERT
  8
SHEET
  2
2
 10
16350.00
 20
24950.00
  0
POLYLINE
  8
SHEET
 66
     1
 10
0.00
 20
0.00
 40
0.00
 41
0.00
  0
VERTEX
  8
SHEET
 10
16250.00
 20
24800.00
 40
0.00
 41
0.00
  0
VERTEX
  8
SHEET
 10
16450.00
 20
24800.00
 40
0.00
 41
0.00
  0
VERTEX
  8
SHEET
 10
16450.00
 20
24800.00
  0
SEQEND
  8
SHEET
  0
POLYLINE
  8
SHEET
 66
     1
 10
0.00
 20
0.00
 40
0.00
 41
0.00
  0
VERTEX
  8
SHEET
 10
16250.00
 20
24850.00
 40
0.00
 41
0.00
  0
VERTEX
  8
SHEET
 10
16450.00
 20
24850.00
 40
0.00
 41
0.00
  0
VERTEX
  8
SHEET
 10
16450.00
 20
24850.00
  0
SEQEND
  8
SHEET
  0
POLYLINE
  8
SHEET
 66
     1
 10
0.00
 20
0.00
 40
0.00
 41
0.00
  0
VERTEX
  8
SHEET
 10
16350.00
 20
24700.00
 40
0.00
 41
0.00
  0
VERTEX
  8
SHEET
 10
16350.00
 20
24800.00
 40
0.00
 41
0.00
  0
VERTEX
  8
SHEET
 10
16350.00
 20
24800.00
  0
SEQEND
  8
SHEET
  0
POLYLINE
  8
SHEET
 66
     1
 10
0.00
 20
0.00
 40
0.00
 41
0.00
  0
VERTEX
  8
SHEET
 10
16350.00
 20
24850.00
 40
0.00
 41
0.00
  0
VERTEX
  8
SHEET
 10
16350.00
 20
24950.00
 40
0.00
 41
0.00
  0
VERTEX
  8
SHEET
 10
16350.00
 20
24950.00
  0
SEQEND
  8
SHEET
  0
TEXT
  8
SHEET
 62
     5
 10
16525.00
 20
24775.00
 40
50.00
  1
SW3b
 50
90.000
  0
TEXT
  8
SHEET
 62
     5
 10
16585.00
 20
24775.00
 40
50.00
  1
SSRelay
 50
90.000
  0
INSERT
  8
SHEET
  2
2
 10
16650.00
 20
23650.00
  0
INSERT
  8
SHEET
  2
2
 10
16650.00
 20
24150.00
  0
POLYLINE
  8
SHEET
 66
     1
 10
0.00
 20
0.00
 40
0.00
 41
0.00
  0
VERTEX
  8
SHEET
 10
16650.00
 20
23750.00
 40
0.00
 41
0.00
 42
-0.414
  0
VERTEX
  8
SHEET
 10
16600.00
 20
23800.00
  0
VERTEX
  8
SHEET
 10
16600.00
 20
23800.00
 40
0.00
 41
0.00
 42
-0.414
  0
VERTEX
  8
SHEET
 10
16650.00
 20
23850.00
  0
VERTEX
  8
SHEET
 10
16650.00
 20
23850.00
 40
0.00
 41
0.00
 42
-0.414
  0
VERTEX
  8
SHEET
 10
16600.00
 20
23900.00
  0
VERTEX
  8
SHEET
 10
16600.00
 20
23900.00
 40
0.00
 41
0.00
 42
-0.414
  0
VERTEX
  8
SHEET
 10
16650.00
 20
23950.00
  0
VERTEX
  8
SHEET
 10
16650.00
 20
23950.00
 40
0.00
 41
0.00
 42
-0.414
  0
VERTEX
  8
SHEET
 10
16600.00
 20
24000.00
  0
VERTEX
  8
SHEET
 10
16600.00
 20
24000.00
 40
0.00
 41
0.00
 42
-0.414
  0
VERTEX
  8
SHEET
 10
16650.00
 20
24050.00
  0
VERTEX
  8
SHEET
 10
16650.00
 20
24050.00
 40
0.00
 41
0.00
  0
VERTEX
  8
SHEET
 10
16650.00
 20
24150.00
 40
0.00
 41
0.00
  0
VERTEX
  8
SHEET
 10
16650.00
 20
24150.00
  0
SEQEND
  8
SHEET
  0
POLYLINE
  8
SHEET
 66
     1
 10
0.00
 20
0.00
 40
0.00
 41
0.00
  0
VERTEX
  8
SHEET
 10
16650.00
 20
23650.00
 40
0.00
 41
0.00
  0
VERTEX
  8
SHEET
 10
16650.00
 20
23750.00
 40
0.00
 41
0.00
  0
VERTEX
  8
SHEET
 10
16650.00
 20
23750.00
  0
SEQEND
  8
SHEET
  0
TEXT
  8
SHEET
 62
     5
 10
16775.00
 20
23825.00
 40
50.00
  1
SW4a
 50
90.000
  0
TEXT
  8
SHEET
 62
     5
 10
16835.00
 20
23825.00
 40
50.00
  1
SSRelay
 50
90.000
  0
INSERT
  8
SHEET
  2
2
 10
16350.00
 20
23800.00
  0
INSERT
  8
SHEET
  2
2
 10
16350.00
 20
24050.00
  0
POLYLINE
  8
SHEET
 66
     1
 10
0.00
 20
0.00
 40
0.00
 41
0.00
  0
VERTEX
  8
SHEET
 10
16250.00
 20
23900.00
 40
0.00
 41
0.00
  0
VERTEX
  8
SHEET
 10
16450.00
 20
23900.00
 40
0.00
 41
0.00
  0
VERTEX
  8
SHEET
 10
16450.00
 20
23900.00
  0
SEQEND
  8
SHEET
  0
POLYLINE
  8
SHEET
 66
     1
 10
0.00
 20
0.00
 40
0.00
 41
0.00
  0
VERTEX
  8
SHEET
 10
16250.00
 20
23950.00
 40
0.00
 41
0.00
  0
VERTEX
  8
SHEET
 10
16450.00
 20
23950.00
 40
0.00
 41
0.00
  0
VERTEX
  8
SHEET
 10
16450.00
 20
23950.00
  0
SEQEND
  8
SHEET
  0
POLYLINE
  8
SHEET
 66
     1
 10
0.00
 20
0.00
 40
0.00
 41
0.00
  0
VERTEX
  8
SHEET
 10
16350.00
 20
23800.00
 40
0.00
 41
0.00
  0
VERTEX
  8
SHEET
 10
16350.00
 20
23900.00
 40
0.00
 41
0.00
  0
VERTEX
  8
SHEET
 10
16350.00
 20
23900.00
  0
SEQEND
  8
SHEET
  0
POLYLINE
  8
SHEET
 66
     1
 10
0.00
 20
0.00
 40
0.00
 41
0.00
  0
VERTEX
  8
SHEET
 10
16350.00
 20
23950.00
 40
0.00
 41
0.00
  0
VERTEX
  8
SHEET
 10
16350.00
 20
24050.00
 40
0.00
 41
0.00
  0
VERTEX
  8
SHEET
 10
16350.00
 20
24050.00
  0
SEQEND
  8
SHEET
  0
TEXT
  8
SHEET
 62
     5
 10
16525.00
 20
23875.00
 40
50.00
  1
SW4b
 50
90.000
  0
TEXT
  8
SHEET
 62
     5
 10
16585.00
 20
23875.00
 40
50.00
  1
SSRelay
 50
90.000
  0
INSERT
  8
SHEET
  2
2
 10
16850.00
 20
23550.00
 50
270.000
  0
TEXT
  8
SHEET
 62
    145
 10
16775.00
 20
23475.00
 40
50.00
  1
1
 72
     2
 11
16825.00
 21
23475.00
  0
POLYLINE
  8
SHEET
 66
     1
 10
0.00
 20
0.00
 40
0.00
 41
0.00
  0
VERTEX
  8
SHEET
 10
16850.00
 20
23550.00
 40
0.00
 41
0.00
  0
VERTEX
  8
SHEET
 10
16850.00
 20
23400.00
 40
0.00
 41
0.00
  0
VERTEX
  8
SHEET
 10
16850.00
 20
23400.00
  0
SEQEND
  8
SHEET
  0
POLYLINE
  8
SHEET
 66
     1
 10
0.00
 20
0.00
 40
0.00
 41
0.00
  0
VERTEX
  8
SHEET
 10
16775.00
 20
23350.00
 40
0.00
 41
0.00
  0
VERTEX
  8
SHEET
 10
16800.00
 20
23400.00
  0
VERTEX
  8
SHEET
 10
16800.00
 20
23400.00
 40
0.00
 41
0.00
  0
VERTEX
  8
SHEET
 10
16900.00
 20
23400.00
  0
VERTEX
  8
SHEET
 10
16900.00
 20
23400.00
 40
0.00
 41
0.00
  0
VERTEX
  8
SHEET
 10
16875.00
 20
23350.00
 40
0.00
 41
0.00
  0
VERTEX
  8
SHEET
 10
16875.00
 20
23350.00
  0
SEQEND
  8
SHEET
  0
POLYLINE
  8
SHEET
 66
     1
 10
0.00
 20
0.00
 40
0.00
 41
0.00
  0
VERTEX
  8
SHEET
 10
16825.00
 20
23400.00
 40
0.00
 41
0.00
  0
VERTEX
  8
SHEET
 10
16800.00
 20
23350.00
 40
0.00
 41
0.00
  0
VERTEX
  8
SHEET
 10
16800.00
 20
23350.00
  0
SEQEND
  8
SHEET
  0
POLYLINE
  8
SHEET
 66
     1
 10
0.00
 20
0.00
 40
0.00
 41
0.00
  0
VERTEX
  8
SHEET
 10
16850.00
 20
23400.00
 40
0.00
 41
0.00
  0
VERTEX
  8
SHEET
 10
16825.00
 20
23350.00
 40
0.00
 41
0.00
  0
VERTEX
  8
SHEET
 10
16825.00
 20
23350.00
  0
SEQEND
  8
SHEET
  0
POLYLINE
  8
SHEET
 66
     1
 10
0.00
 20
0.00
 40
0.00
 41
0.00
  0
VERTEX
  8
SHEET
 10
16875.00
 20
23400.00
 40
0.00
 41
0.00
  0
VERTEX
  8
SHEET
 10
16850.00
 20
23350.00
 40
0.00
 41
0.00
  0
VERTEX
  8
SHEET
 10
16850.00
 20
23350.00
  0
SEQEND
  8
SHEET
  0
TEXT
  8
SHEET
 62
     5
 10
16800.00
 20
23275.00
 40
50.00
  1
TP12
  0
INSERT
  8
SHEET
  2
2
 10
17050.00
 20
24650.00
 50
270.000
  0
TEXT
  8
SHEET
 62
    145
 10
16975.00
 20
24575.00
 40
50.00
  1
1
 72
     2
 11
17025.00
 21
24575.00
  0
POLYLINE
  8
SHEET
 66
     1
 10
0.00
 20
0.00
 40
0.00
 41
0.00
  0
VERTEX
  8
SHEET
 10
17050.00
 20
24650.00
 40
0.00
 41
0.00
  0
VERTEX
  8
SHEET
 10
17050.00
 20
24500.00
 40
0.00
 41
0.00
  0
VERTEX
  8
SHEET
 10
17050.00
 20
24500.00
  0
SEQEND
  8
SHEET
  0
POLYLINE
  8
SHEET
 66
     1
 10
0.00
 20
0.00
 40
0.00
 41
0.00
  0
VERTEX
  8
SHEET
 10
16975.00
 20
24450.00
 40
0.00
 41
0.00
  0
VERTEX
  8
SHEET
 10
17000.00
 20
24500.00
  0
VERTEX
  8
SHEET
 10
17000.00
 20
24500.00
 40
0.00
 41
0.00
  0
VERTEX
  8
SHEET
 10
17100.00
 20
24500.00
  0
VERTEX
  8
SHEET
 10
17100.00
 20
24500.00
 40
0.00
 41
0.00
  0
VERTEX
  8
SHEET
 10
17075.00
 20
24450.00
 40
0.00
 41
0.00
  0
VERTEX
  8
SHEET
 10
17075.00
 20
24450.00
  0
SEQEND
  8
SHEET
  0
POLYLINE
  8
SHEET
 66
     1
 10
0.00
 20
0.00
 40
0.00
 41
0.00
  0
VERTEX
  8
SHEET
 10
17025.00
 20
24500.00
 40
0.00
 41
0.00
  0
VERTEX
  8
SHEET
 10
17000.00
 20
24450.00
 40
0.00
 41
0.00
  0
VERTEX
  8
SHEET
 10
17000.00
 20
24450.00
  0
SEQEND
  8
SHEET
  0
POLYLINE
  8
SHEET
 66
     1
 10
0.00
 20
0.00
 40
0.00
 41
0.00
  0
VERTEX
  8
SHEET
 10
17050.00
 20
24500.00
 40
0.00
 41
0.00
  0
VERTEX
  8
SHEET
 10
17025.00
 20
24450.00
 40
0.00
 41
0.00
  0
VERTEX
  8
SHEET
 10
17025.00
 20
24450.00
  0
SEQEND
  8
SHEET
  0
POLYLINE
  8
SHEET
 66
     1
 10
0.00
 20
0.00
 40
0.00
 41
0.00
  0
VERTEX
  8
SHEET
 10
17075.00
 20
24500.00
 40
0.00
 41
0.00
  0
VERTEX
  8
SHEET
 10
17050.00
 20
24450.00
 40
0.00
 41
0.00
  0
VERTEX
  8
SHEET
 10
17050.00
 20
24450.00
  0
SEQEND
  8
SHEET
  0
TEXT
  8
SHEET
 62
     5
 10
17000.00
 20
24375.00
 40
50.00
  1
TP13
  0
TEXT
  8
SHEET
 62
     5
 10
17000.00
 20
24315.00
 40
50.00
  1
EARTH
  0
INSERT
  8
SHEET
  2
2
 10
18550.00
 20
23750.00
 50
270.000
  0
TEXT
  8
SHEET
 62
    145
 10
18575.00
 20
23775.00
 40
50.00
  1
1
 72
     2
 11
18625.00
 21
23775.00
  0
INSERT
  8
SHEET
  2
2
 10
18800.00
 20
23750.00
 50
270.000
  0
TEXT
  8
SHEET
 62
    145
 10
18725.00
 20
23775.00
 40
50.00
  1
2
  0
POLYLINE
  8
SHEET
 66
     1
 10
0.00
 20
0.00
 40
0.00
 41
0.00
  0
VERTEX
  8
SHEET
 10
18650.00
 20
23850.00
 40
0.00
 41
0.00
  0
VERTEX
  8
SHEET
 10
18650.00
 20
23650.00
 40
0.00
 41
0.00
  0
VERTEX
  8
SHEET
 10
18650.00
 20
23650.00
  0
SEQEND
  8
SHEET
  0
POLYLINE
  8
SHEET
 66
     1
 10
0.00
 20
0.00
 40
0.00
 41
0.00
  0
VERTEX
  8
SHEET
 10
18700.00
 20
23850.00
 40
0.00
 41
0.00
  0
VERTEX
  8
SHEET
 10
18700.00
 20
23650.00
 40
0.00
 41
0.00
  0
VERTEX
  8
SHEET
 10
18700.00
 20
23650.00
  0
SEQEND
  8
SHEET
  0
POLYLINE
  8
SHEET
 66
     1
 10
0.00
 20
0.00
 40
0.00
 41
0.00
  0
VERTEX
  8
SHEET
 10
18550.00
 20
23750.00
 40
0.00
 41
0.00
  0
VERTEX
  8
SHEET
 10
18650.00
 20
23750.00
 40
0.00
 41
0.00
  0
VERTEX
  8
SHEET
 10
18650.00
 20
23750.00
  0
SEQEND
  8
SHEET
  0
POLYLINE
  8
SHEET
 66
     1
 10
0.00
 20
0.00
 40
0.00
 41
0.00
  0
VERTEX
  8
SHEET
 10
18700.00
 20
23750.00
 40
0.00
 41
0.00
  0
VERTEX
  8
SHEET
 10
18800.00
 20
23750.00
 40
0.00
 41
0.00
  0
VERTEX
  8
SHEET
 10
18800.00
 20
23750.00
  0
SEQEND
  8
SHEET
  0
TEXT
  8
SHEET
 62
     5
 10
18625.00
 20
23575.00
 40
50.00
  1
C8
  0
TEXT
  8
SHEET
 62
     5
 10
18625.00
 20
23515.00
 40
50.00
  1
0.22ufd
  0
TEXT
  8
SHEET
 62
     5
 10
18625.00
 20
23455.00
 40
50.00
  1
1600VDC
  0
INSERT
  8
SHEET
  2
2
 10
19700.00
 20
19300.00
  0
INSERT
  8
SHEET
  2
2
 10
19700.00
 20
19550.00
  0
POLYLINE
  8
SHEET
 66
     1
 10
0.00
 20
0.00
 40
0.00
 41
0.00
  0
VERTEX
  8
SHEET
 10
19600.00
 20
19400.00
 40
0.00
 41
0.00
  0
VERTEX
  8
SHEET
 10
19800.00
 20
19400.00
 40
0.00
 41
0.00
  0
VERTEX
  8
SHEET
 10
19800.00
 20
19400.00
  0
SEQEND
  8
SHEET
  0
POLYLINE
  8
SHEET
 66
     1
 10
0.00
 20
0.00
 40
0.00
 41
0.00
  0
VERTEX
  8
SHEET
 10
19600.00
 20
19450.00
 40
0.00
 41
0.00
  0
VERTEX
  8
SHEET
 10
19800.00
 20
19450.00
 40
0.00
 41
0.00
  0
VERTEX
  8
SHEET
 10
19800.00
 20
19450.00
  0
SEQEND
  8
SHEET
  0
POLYLINE
  8
SHEET
 66
     1
 10
0.00
 20
0.00
 40
0.00
 41
0.00
  0
VERTEX
  8
SHEET
 10
19700.00
 20
19300.00
 40
0.00
 41
0.00
  0
VERTEX
  8
SHEET
 10
19700.00
 20
19400.00
 40
0.00
 41
0.00
  0
VERTEX
  8
SHEET
 10
19700.00
 20
19400.00
  0
SEQEND
  8
SHEET
  0
POLYLINE
  8
SHEET
 66
     1
 10
0.00
 20
0.00
 40
0.00
 41
0.00
  0
VERTEX
  8
SHEET
 10
19700.00
 20
19450.00
 40
0.00
 41
0.00
  0
VERTEX
  8
SHEET
 10
19700.00
 20
19550.00
 40
0.00
 41
0.00
  0
VERTEX
  8
SHEET
 10
19700.00
 20
19550.00
  0
SEQEND
  8
SHEET
  0
TEXT
  8
SHEET
 62
     5
 10
19875.00
 20
19375.00
 40
50.00
  1
C4
 50
90.000
  0
TEXT
  8
SHEET
 62
     5
 10
19935.00
 20
19375.00
 40
50.00
  1
1000ufd
 50
90.000
  0
POLYLINE
  8
SHEET
 66
     1
 10
0.00
 20
0.00
 70
     1
 40
0.00
 41
0.00
  0
VERTEX
  8
SHEET
 10
14700.00
 20
17750.00
 40
0.00
 41
0.00
  0
VERTEX
  8
SHEET
 10
14700.00
 20
28750.00
  0
VERTEX
  8
SHEET
 10
14700.00
 20
28750.00
 40
0.00
 41
0.00
  0
VERTEX
  8
SHEET
 10
30700.00
 20
28750.00
  0
VERTEX
  8
SHEET
 10
30700.00
 20
28750.00
 40
0.00
 41
0.00
  0
VERTEX
  8
SHEET
 10
30700.00
 20
17750.00
  0
VERTEX
  8
SHEET
 10
30700.00
 20
17750.00
 40
0.00
 41
0.00
  0
VERTEX
  8
SHEET
 10
14700.00
 20
17750.00
 40
0.00
 41
0.00
  0
VERTEX
  8
SHEET
 10
14700.00
 20
17750.00
  0
SEQEND
  8
SHEET
  0
POLYLINE
  8
SHEET
 66
     1
 10
0.00
 20
0.00
 40
0.00
 41
0.00
  0
VERTEX
  8
SHEET
 10
19700.00
 20
17750.00
 40
0.00
 41
0.00
  0
VERTEX
  8
SHEET
 10
19700.00
 20
18950.00
  0
VERTEX
  8
SHEET
 10
19700.00
 20
18950.00
 40
0.00
 41
0.00
  0
VERTEX
  8
SHEET
 10
30700.00
 20
18950.00
 40
0.00
 41
0.00
  0
VERTEX
  8
SHEET
 10
30700.00
 20
18950.00
  0
SEQEND
  8
SHEET
  0
POLYLINE
  8
SHEET
 66
     1
 10
0.00
 20
0.00
 40
0.00
 41
0.00
  0
VERTEX
  8
SHEET
 10
27700.00
 20
18950.00
 40
0.00
 41
0.00
  0
VERTEX
  8
SHEET
 10
27700.00
 20
17750.00
 40
0.00
 41
0.00
  0
VERTEX
  8
SHEET
 10
27700.00
 20
17750.00
  0
SEQEND
  8
SHEET
  0
POLYLINE
  8
SHEET
 66
     1
 10
0.00
 20
0.00
 40
0.00
 41
0.00
  0
VERTEX
  8
SHEET
 10
24700.00
 20
18950.00
 40
0.00
 41
0.00
  0
VERTEX
  8
SHEET
 10
24700.00
 20
17750.00
 40
0.00
 41
0.00
  0
VERTEX
  8
SHEET
 10
24700.00
 20
17750.00
  0
SEQEND
  8
SHEET
  0
POLYLINE
  8
SHEET
 66
     1
 10
0.00
 20
0.00
 40
0.00
 41
0.00
  0
VERTEX
  8
SHEET
 10
20300.00
 20
18950.00
 40
0.00
 41
0.00
  0
VERTEX
  8
SHEET
 10
20300.00
 20
17750.00
 40
0.00
 41
0.00
  0
VERTEX
  8
SHEET
 10
20300.00
 20
17750.00
  0
SEQEND
  8
SHEET
  0
POLYLINE
  8
SHEET
 66
     1
 10
0.00
 20
0.00
 40
0.00
 41
0.00
  0
VERTEX
  8
SHEET
 10
20900.00
 20
18950.00
 40
0.00
 41
0.00
  0
VERTEX
  8
SHEET
 10
20900.00
 20
17750.00
 40
0.00
 41
0.00
  0
VERTEX
  8
SHEET
 10
20900.00
 20
17750.00
  0
SEQEND
  8
SHEET
  0
POLYLINE
  8
SHEET
 66
     1
 10
0.00
 20
0.00
 40
0.00
 41
0.00
  0
VERTEX
  8
SHEET
 10
21500.00
 20
18950.00
 40
0.00
 41
0.00
  0
VERTEX
  8
SHEET
 10
21500.00
 20
17750.00
 40
0.00
 41
0.00
  0
VERTEX
  8
SHEET
 10
21500.00
 20
17750.00
  0
SEQEND
  8
SHEET
  0
POLYLINE
  8
SHEET
 66
     1
 10
0.00
 20
0.00
 40
0.00
 41
0.00
  0
VERTEX
  8
SHEET
 10
22100.00
 20
18950.00
 40
0.00
 41
0.00
  0
VERTEX
  8
SHEET
 10
22100.00
 20
17750.00
 40
0.00
 41
0.00
  0
VERTEX
  8
SHEET
 10
22100.00
 20
17750.00
  0
SEQEND
  8
SHEET
  0
POLYLINE
  8
SHEET
 66
     1
 10
0.00
 20
0.00
 40
0.00
 41
0.00
  0
VERTEX
  8
SHEET
 10
19700.00
 20
18550.00
 40
0.00
 41
0.00
  0
VERTEX
  8
SHEET
 10
27700.00
 20
18550.00
 40
0.00
 41
0.00
  0
VERTEX
  8
SHEET
 10
27700.00
 20
18550.00
  0
SEQEND
  8
SHEET
  0
POLYLINE
  8
SHEET
 66
     1
 10
0.00
 20
0.00
 40
0.00
 41
0.00
  0
VERTEX
  8
SHEET
 10
19700.00
 20
18150.00
 40
0.00
 41
0.00
  0
VERTEX
  8
SHEET
 10
30700.00
 20
18150.00
 40
0.00
 41
0.00
  0
VERTEX
  8
SHEET
 10
30700.00
 20
18150.00
  0
SEQEND
  8
SHEET
  0
POLYLINE
  8
SHEET
 66
     1
 10
0.00
 20
0.00
 40
0.00
 41
0.00
  0
VERTEX
  8
SHEET
 10
30100.00
 20
18150.00
 40
0.00
 41
0.00
  0
VERTEX
  8
SHEET
 10
30100.00
 20
17750.00
 40
0.00
 41
0.00
  0
VERTEX
  8
SHEET
 10
30100.00
 20
17750.00
  0
SEQEND
  8
SHEET
  0
POLYLINE
  8
SHEET
 66
     1
 10
0.00
 20
0.00
 40
0.00
 41
0.00
  0
VERTEX
  8
SHEET
 10
23700.00
 20
18950.00
 40
0.00
 41
0.00
  0
VERTEX
  8
SHEET
 10
23700.00
 20
18550.00
 40
0.00
 41
0.00
  0
VERTEX
  8
SHEET
 10
23700.00
 20
18550.00
  0
SEQEND
  8
SHEET
  0
POLYLINE
  8
SHEET
 66
     1
 10
0.00
 20
0.00
 40
0.00
 41
0.00
  0
VERTEX
  8
SHEET
 10
22700.00
 20
18950.00
 40
0.00
 41
0.00
  0
VERTEX
  8
SHEET
 10
22700.00
 20
18550.00
 40
0.00
 41
0.00
  0
VERTEX
  8
SHEET
 10
22700.00
 20
18550.00
  0
SEQEND
  8
SHEET
  0
POLYLINE
  8
SHEET
 66
     1
 10
0.00
 20
0.00
 70
     1
 40
0.00
 41
0.00
  0
VERTEX
  8
SHEET
 10
26200.00
 20
18850.00
 40
0.00
 41
0.00
 42
-0.414
  0
VERTEX
  8
SHEET
 10
26300.00
 20
18750.00
  0
VERTEX
  8
SHEET
 10
26300.00
 20
18750.00
 40
0.00
 41
0.00
 42
-0.414
  0
VERTEX
  8
SHEET
 10
26200.00
 20
18650.00
  0
VERTEX
  8
SHEET
 10
26200.00
 20
18650.00
 40
0.00
 41
0.00
 42
-0.414
  0
VERTEX
  8
SHEET
 10
26100.00
 20
18750.00
  0
VERTEX
  8
SHEET
 10
26100.00
 20
18750.00
 40
0.00
 41
0.00
 42
-0.414
  0
VERTEX
  8
SHEET
 10
26200.00
 20
18850.00
 40
0.00
 41
0.00
  0
VERTEX
  8
SHEET
 10
26200.00
 20
18850.00
  0
SEQEND
  8
SHEET
  0
POLYLINE
  8
SHEET
 66
     1
 10
0.00
 20
0.00
 70
     1
 40
0.00
 41
0.00
  0
VERTEX
  8
SHEET
 10
26200.00
 20
18600.00
 40
0.00
 41
0.00
 42
-0.414
  0
VERTEX
  8
SHEET
 10
26050.00
 20
18750.00
  0
VERTEX
  8
SHEET
 10
26050.00
 20
18750.00
 40
0.00
 41
0.00
 42
-0.414
  0
VERTEX
  8
SHEET
 10
26200.00
 20
18900.00
  0
VERTEX
  8
SHEET
 10
26200.00
 20
18900.00
 40
0.00
 41
0.00
 42
-0.414
  0
VERTEX
  8
SHEET
 10
26350.00
 20
18750.00
  0
VERTEX
  8
SHEET
 10
26350.00
 20
18750.00
 40
0.00
 41
0.00
 42
-0.414
  0
VERTEX
  8
SHEET
 10
26200.00
 20
18600.00
 40
0.00
 41
0.00
  0
VERTEX
  8
SHEET
 10
26200.00
 20
18600.00
  0
SEQEND
  8
SHEET
  0
POLYLINE
  8
SHEET
 66
     1
 10
0.00
 20
0.00
 40
0.00
 41
0.00
  0
VERTEX
  8
SHEET
 10
26025.00
 20
18750.00
 40
0.00
 41
0.00
  0
VERTEX
  8
SHEET
 10
26375.00
 20
18750.00
 40
0.00
 41
0.00
  0
VERTEX
  8
SHEET
 10
26375.00
 20
18750.00
  0
SEQEND
  8
SHEET
  0
POLYLINE
  8
SHEET
 66
     1
 10
0.00
 20
0.00
 40
0.00
 41
0.00
  0
VERTEX
  8
SHEET
 10
26200.00
 20
18925.00
 40
0.00
 41
0.00
  0
VERTEX
  8
SHEET
 10
26200.00
 20
18575.00
 40
0.00
 41
0.00
  0
VERTEX
  8
SHEET
 10
26200.00
 20
18575.00
  0
SEQEND
  8
SHEET
  0
POLYLINE
  8
SHEET
 66
     1
 10
0.00
 20
0.00
 70
     1
 40
0.00
 41
0.00
  0
VERTEX
  8
SHEET
 10
26700.00
 20
18650.00
 40
0.00
 41
0.00
  0
VERTEX
  8
SHEET
 10
26700.00
 20
18850.00
  0
VERTEX
  8
SHEET
 10
26700.00
 20
18850.00
 40
0.00
 41
0.00
  0
VERTEX
  8
SHEET
 10
27300.00
 20
18900.00
  0
VERTEX
  8
SHEET
 10
27300.00
 20
18900.00
 40
0.00
 41
0.00
  0
VERTEX
  8
SHEET
 10
27300.00
 20
18600.00
  0
VERTEX
  8
SHEET
 10
27300.00
 20
18600.00
 40
0.00
 41
0.00
  0
VERTEX
  8
SHEET
 10
26700.00
 20
18650.00
 40
0.00
 41
0.00
  0
VERTEX
  8
SHEET
 10
26700.00
 20
18650.00
  0
SEQEND
  8
SHEET
  0
POLYLINE
  8
SHEET
 66
     1
 10
0.00
 20
0.00
 40
0.00
 41
0.00
  0
VERTEX
  8
SHEET
 10
26650.00
 20
18750.00
 40
0.00
 41
0.00
  0
VERTEX
  8
SHEET
 10
27350.00
 20
18750.00
 40
0.00
 41
0.00
  0
VERTEX
  8
SHEET
 10
27350.00
 20
18750.00
  0
SEQEND
  8
SHEET
  0
TEXT
  8
SHEET
 62
     5
 10
19800.00
 20
18850.00
 40
75.00
  1
E
  0
TEXT
  8
SHEET
 62
     5
 10
20400.00
 20
18850.00
 40
75.00
  1
D
  0
TEXT
  8
SHEET
 62
     5
 10
21000.00
 20
18850.00
 40
75.00
  1
C
  0
TEXT
  8
SHEET
 62
     5
 10
21600.00
 20
18850.00
 40
75.00
  1
B
  0
TEXT
  8
SHEET
 62
     5
 10
22200.00
 20
18850.00
 40
75.00
  1
A
  0
TEXT
  8
SHEET
 62
     5
 10
19800.00
 20
18450.00
 40
75.00
  1
Drn
  0
TEXT
  8
SHEET
 62
     5
 10
20400.00
 20
18450.00
 40
75.00
  1
Drn
  0
TEXT
  8
SHEET
 62
     5
 10
21008.00
 20
18450.00
 40
75.00
  1
Drn
  0
TEXT
  8
SHEET
 62
     5
 10
21608.00
 20
18442.00
 40
75.00
  1
Drn
  0
TEXT
  8
SHEET
 62
     5
 10
19800.00
 20
18050.00
 40
75.00
  1
Chk
  0
TEXT
  8
SHEET
 62
     5
 10
20400.00
 20
18050.00
 40
75.00
  1
Chk
  0
TEXT
  8
SHEET
 62
     5
 10
21016.00
 20
18058.00
 40
75.00
  1
Chk
  0
TEXT
  8
SHEET
 62
     5
 10
21608.00
 20
18050.00
 40
75.00
  1
Chk
  0
TEXT
  8
SHEET
 62
     5
 10
22800.00
 20
18850.00
 40
75.00
  1
Drawn
  0
TEXT
  8
SHEET
 62
     5
 10
23800.00
 20
18850.00
 40
75.00
  1
Check
  0
TEXT
  8
SHEET
 62
     5
 10
22200.00
 20
18450.00
 40
75.00
  1
Project
  0
TEXT
  8
SHEET
 62
     5
 10
22200.00
 20
18050.00
 40
75.00
  1
Title
  0
TEXT
  8
SHEET
 62
     5
 10
24800.00
 20
18850.00
 40
75.00
  1
Projection
  0
TEXT
  8
SHEET
 62
     5
 10
24800.00
 20
18700.00
 40
75.00
  1
Do Not Scale
  0
TEXT
  8
SHEET
 62
     5
 10
24800.00
 20
18450.00
 40
75.00
  1
Client
  0
TEXT
  8
SHEET
 62
     5
 10
24800.00
 20
18050.00
 40
75.00
  1
Filename
  0
TEXT
  8
SHEET
 62
     5
 10
27800.00
 20
18050.00
 40
75.00
  1
Drawing No.
  0
TEXT
  8
SHEET
 62
     5
 10
30200.00
 20
18050.00
 40
75.00
  1
Sheet
  0
TEXT
  8
SHEET
 62
     5
 10
30375.00
 20
17875.00
 40
75.00
  1
of
  0
TEXT
  8
SHEET
 62
     5
 10
14665.00
 20
17625.00
 40
50.00
  1
OTL2
  0
TEXT
  8
SHEET
 62
     5
 10
14665.00
 20
17565.00
 40
50.00
  1
HOLOGRAPHIC YAG LASER
  0
INSERT
  8
SHEET
  2
2
 10
23900.00
 20
26500.00
 50
270.000
  0
INSERT
  8
SHEET
  2
2
 10
24400.00
 20
26500.00
 50
270.000
  0
POLYLINE
  8
SHEET
 66
     1
 10
0.00
 20
0.00
 40
0.00
 41
0.00
  0
VERTEX
  8
SHEET
 10
24400.00
 20
26500.00
 40
0.00
 41
0.00
  0
VERTEX
  8
SHEET
 10
24300.00
 20
26500.00
  0
VERTEX
  8
SHEET
 10
24300.00
 20
26500.00
 40
0.00
 41
0.00
  0
VERTEX
  8
SHEET
 10
24275.00
 20
26550.00
  0
VERTEX
  8
SHEET
 10
24275.00
 20
26550.00
 40
0.00
 41
0.00
  0
VERTEX
  8
SHEET
 10
24225.00
 20
26450.00
  0
VERTEX
  8
SHEET
 10
24225.00
 20
26450.00
 40
0.00
 41
0.00
  0
VERTEX
  8
SHEET
 10
24175.00
 20
26550.00
  0
VERTEX
  8
SHEET
 10
24175.00
 20
26550.00
 40
0.00
 41
0.00
  0
VERTEX
  8
SHEET
 10
24125.00
 20
26450.00
  0
VERTEX
  8
SHEET
 10
24125.00
 20
26450.00
 40
0.00
 41
0.00
  0
VERTEX
  8
SHEET
 10
24075.00
 20
26550.00
  0
VERTEX
  8
SHEET
 10
24075.00
 20
26550.00
 40
0.00
 41
0.00
  0
VERTEX
  8
SHEET
 10
24025.00
 20
26450.00
  0
VERTEX
  8
SHEET
 10
24025.00
 20
26450.00
 40
0.00
 41
0.00
  0
VERTEX
  8
SHEET
 10
24000.00
 20
26500.00
  0
VERTEX
  8
SHEET
 10
24000.00
 20
26500.00
 40
0.00
 41
0.00
  0
VERTEX
  8
SHEET
 10
23900.00
 20
26500.00
 40
0.00
 41
0.00
  0
VERTEX
  8
SHEET
 10
23900.00
 20
26500.00
  0
SEQEND
  8
SHEET
  0
TEXT
  8
SHEET
 62
     5
 10
24075.00
 20
26375.00
 40
50.00
  1
R19
  0
TEXT
  8
SHEET
 62
     5
 10
24075.00
 20
26315.00
 40
50.00
  1
100K
  0
INSERT
  8
SHEET
  2
2
 10
23900.00
 20
27350.00
 50
270.000
  0
INSERT
  8
SHEET
  2
2
 10
24400.00
 20
27350.00
 50
270.000
  0
POLYLINE
  8
SHEET
 66
     1
 10
0.00
 20
0.00
 40
0.00
 41
0.00
  0
VERTEX
  8
SHEET
 10
24400.00
 20
27350.00
 40
0.00
 41
0.00
  0
VERTEX
  8
SHEET
 10
24300.00
 20
27350.00
  0
VERTEX
  8
SHEET
 10
24300.00
 20
27350.00
 40
0.00
 41
0.00
  0
VERTEX
  8
SHEET
 10
24275.00
 20
27400.00
  0
VERTEX
  8
SHEET
 10
24275.00
 20
27400.00
 40
0.00
 41
0.00
  0
VERTEX
  8
SHEET
 10
24225.00
 20
27300.00
  0
VERTEX
  8
SHEET
 10
24225.00
 20
27300.00
 40
0.00
 41
0.00
  0
VERTEX
  8
SHEET
 10
24175.00
 20
27400.00
  0
VERTEX
  8
SHEET
 10
24175.00
 20
27400.00
 40
0.00
 41
0.00
  0
VERTEX
  8
SHEET
 10
24125.00
 20
27300.00
  0
VERTEX
  8
SHEET
 10
24125.00
 20
27300.00
 40
0.00
 41
0.00
  0
VERTEX
  8
SHEET
 10
24075.00
 20
27400.00
  0
VERTEX
  8
SHEET
 10
24075.00
 20
27400.00
 40
0.00
 41
0.00
  0
VERTEX
  8
SHEET
 10
24025.00
 20
27300.00
  0
VERTEX
  8
SHEET
 10
24025.00
 20
27300.00
 40
0.00
 41
0.00
  0
VERTEX
  8
SHEET
 10
24000.00
 20
27350.00
  0
VERTEX
  8
SHEET
 10
24000.00
 20
27350.00
 40
0.00
 41
0.00
  0
VERTEX
  8
SHEET
 10
23900.00
 20
27350.00
 40
0.00
 41
0.00
  0
VERTEX
  8
SHEET
 10
23900.00
 20
27350.00
  0
SEQEND
  8
SHEET
  0
TEXT
  8
SHEET
 62
     5
 10
24075.00
 20
27225.00
 40
50.00
  1
R21
  0
TEXT
  8
SHEET
 62
     5
 10
24075.00
 20
27165.00
 40
50.00
  1
100K
  0
INSERT
  8
SHEET
  2
2
 10
25950.00
 20
26600.00
 50
270.000
  0
INSERT
  8
SHEET
  2
2
 10
26450.00
 20
26600.00
 50
270.000
  0
POLYLINE
  8
SHEET
 66
     1
 10
0.00
 20
0.00
 40
0.00
 41
0.00
  0
VERTEX
  8
SHEET
 10
26450.00
 20
26600.00
 40
0.00
 41
0.00
  0
VERTEX
  8
SHEET
 10
26350.00
 20
26600.00
  0
VERTEX
  8
SHEET
 10
26350.00
 20
26600.00
 40
0.00
 41
0.00
  0
VERTEX
  8
SHEET
 10
26325.00
 20
26650.00
  0
VERTEX
  8
SHEET
 10
26325.00
 20
26650.00
 40
0.00
 41
0.00
  0
VERTEX
  8
SHEET
 10
26275.00
 20
26550.00
  0
VERTEX
  8
SHEET
 10
26275.00
 20
26550.00
 40
0.00
 41
0.00
  0
VERTEX
  8
SHEET
 10
26225.00
 20
26650.00
  0
VERTEX
  8
SHEET
 10
26225.00
 20
26650.00
 40
0.00
 41
0.00
  0
VERTEX
  8
SHEET
 10
26175.00
 20
26550.00
  0
VERTEX
  8
SHEET
 10
26175.00
 20
26550.00
 40
0.00
 41
0.00
  0
VERTEX
  8
SHEET
 10
26125.00
 20
26650.00
  0
VERTEX
  8
SHEET
 10
26125.00
 20
26650.00
 40
0.00
 41
0.00
  0
VERTEX
  8
SHEET
 10
26075.00
 20
26550.00
  0
VERTEX
  8
SHEET
 10
26075.00
 20
26550.00
 40
0.00
 41
0.00
  0
VERTEX
  8
SHEET
 10
26050.00
 20
26600.00
  0
VERTEX
  8
SHEET
 10
26050.00
 20
26600.00
 40
0.00
 41
0.00
  0
VERTEX
  8
SHEET
 10
25950.00
 20
26600.00
 40
0.00
 41
0.00
  0
VERTEX
  8
SHEET
 10
25950.00
 20
26600.00
  0
SEQEND
  8
SHEET
  0
TEXT
  8
SHEET
 62
     5
 10
26125.00
 20
26475.00
 40
50.00
  1
R25
  0
TEXT
  8
SHEET
 62
     5
 10
26125.00
 20
26415.00
 40
50.00
  1
100K
  0
INSERT
  8
SHEET
  2
2
 10
25950.00
 20
27450.00
 50
270.000
  0
INSERT
  8
SHEET
  2
2
 10
26450.00
 20
27450.00
 50
270.000
  0
POLYLINE
  8
SHEET
 66
     1
 10
0.00
 20
0.00
 40
0.00
 41
0.00
  0
VERTEX
  8
SHEET
 10
26450.00
 20
27450.00
 40
0.00
 41
0.00
  0
VERTEX
  8
SHEET
 10
26350.00
 20
27450.00
  0
VERTEX
  8
SHEET
 10
26350.00
 20
27450.00
 40
0.00
 41
0.00
  0
VERTEX
  8
SHEET
 10
26325.00
 20
27500.00
  0
VERTEX
  8
SHEET
 10
26325.00
 20
27500.00
 40
0.00
 41
0.00
  0
VERTEX
  8
SHEET
 10
26275.00
 20
27400.00
  0
VERTEX
  8
SHEET
 10
26275.00
 20
27400.00
 40
0.00
 41
0.00
  0
VERTEX
  8
SHEET
 10
26225.00
 20
27500.00
  0
VERTEX
  8
SHEET
 10
26225.00
 20
27500.00
 40
0.00
 41
0.00
  0
VERTEX
  8
SHEET
 10
26175.00
 20
27400.00
  0
VERTEX
  8
SHEET
 10
26175.00
 20
27400.00
 40
0.00
 41
0.00
  0
VERTEX
  8
SHEET
 10
26125.00
 20
27500.00
  0
VERTEX
  8
SHEET
 10
26125.00
 20
27500.00
 40
0.00
 41
0.00
  0
VERTEX
  8
SHEET
 10
26075.00
 20
27400.00
  0
VERTEX
  8
SHEET
 10
26075.00
 20
27400.00
 40
0.00
 41
0.00
  0
VERTEX
  8
SHEET
 10
26050.00
 20
27450.00
  0
VERTEX
  8
SHEET
 10
26050.00
 20
27450.00
 40
0.00
 41
0.00
  0
VERTEX
  8
SHEET
 10
25950.00
 20
27450.00
 40
0.00
 41
0.00
  0
VERTEX
  8
SHEET
 10
25950.00
 20
27450.00
  0
SEQEND
  8
SHEET
  0
TEXT
  8
SHEET
 62
     5
 10
26125.00
 20
27325.00
 40
50.00
  1
R26
  0
TEXT
  8
SHEET
 62
     5
 10
26125.00
 20
27265.00
 40
50.00
  1
100K
  0
INSERT
  8
SHEET
  2
2
 10
24500.00
 20
26300.00
 50
270.000
  0
TEXT
  8
SHEET
 62
    145
 10
24425.00
 20
26225.00
 40
50.00
  1
1
 72
     2
 11
24475.00
 21
26225.00
  0
POLYLINE
  8
SHEET
 66
     1
 10
0.00
 20
0.00
 40
0.00
 41
0.00
  0
VERTEX
  8
SHEET
 10
24500.00
 20
26300.00
 40
0.00
 41
0.00
  0
VERTEX
  8
SHEET
 10
24500.00
 20
26150.00
 40
0.00
 41
0.00
  0
VERTEX
  8
SHEET
 10
24500.00
 20
26150.00
  0
SEQEND
  8
SHEET
  0
POLYLINE
  8
SHEET
 66
     1
 10
0.00
 20
0.00
 40
0.00
 41
0.00
  0
VERTEX
  8
SHEET
 10
24425.00
 20
26100.00
 40
0.00
 41
0.00
  0
VERTEX
  8
SHEET
 10
24450.00
 20
26150.00
  0
VERTEX
  8
SHEET
 10
24450.00
 20
26150.00
 40
0.00
 41
0.00
  0
VERTEX
  8
SHEET
 10
24550.00
 20
26150.00
  0
VERTEX
  8
SHEET
 10
24550.00
 20
26150.00
 40
0.00
 41
0.00
  0
VERTEX
  8
SHEET
 10
24525.00
 20
26100.00
 40
0.00
 41
0.00
  0
VERTEX
  8
SHEET
 10
24525.00
 20
26100.00
  0
SEQEND
  8
SHEET
  0
POLYLINE
  8
SHEET
 66
     1
 10
0.00
 20
0.00
 40
0.00
 41
0.00
  0
VERTEX
  8
SHEET
 10
24475.00
 20
26150.00
 40
0.00
 41
0.00
  0
VERTEX
  8
SHEET
 10
24450.00
 20
26100.00
 40
0.00
 41
0.00
  0
VERTEX
  8
SHEET
 10
24450.00
 20
26100.00
  0
SEQEND
  8
SHEET
  0
POLYLINE
  8
SHEET
 66
     1
 10
0.00
 20
0.00
 40
0.00
 41
0.00
  0
VERTEX
  8
SHEET
 10
24500.00
 20
26150.00
 40
0.00
 41
0.00
  0
VERTEX
  8
SHEET
 10
24475.00
 20
26100.00
 40
0.00
 41
0.00
  0
VERTEX
  8
SHEET
 10
24475.00
 20
26100.00
  0
SEQEND
  8
SHEET
  0
POLYLINE
  8
SHEET
 66
     1
 10
0.00
 20
0.00
 40
0.00
 41
0.00
  0
VERTEX
  8
SHEET
 10
24525.00
 20
26150.00
 40
0.00
 41
0.00
  0
VERTEX
  8
SHEET
 10
24500.00
 20
26100.00
 40
0.00
 41
0.00
  0
VERTEX
  8
SHEET
 10
24500.00
 20
26100.00
  0
SEQEND
  8
SHEET
  0
TEXT
  8
SHEET
 62
     5
 10
24450.00
 20
26025.00
 40
50.00
  1
TP15
  0
INSERT
  8
SHEET
  2
2
 10
25550.00
 20
27150.00
 50
270.000
  0
TEXT
  8
SHEET
 62
    145
 10
25475.00
 20
27075.00
 40
50.00
  1
1
 72
     2
 11
25525.00
 21
27075.00
  0
POLYLINE
  8
SHEET
 66
     1
 10
0.00
 20
0.00
 40
0.00
 41
0.00
  0
VERTEX
  8
SHEET
 10
25550.00
 20
27150.00
 40
0.00
 41
0.00
  0
VERTEX
  8
SHEET
 10
25550.00
 20
27000.00
 40
0.00
 41
0.00
  0
VERTEX
  8
SHEET
 10
25550.00
 20
27000.00
  0
SEQEND
  8
SHEET
  0
POLYLINE
  8
SHEET
 66
     1
 10
0.00
 20
0.00
 40
0.00
 41
0.00
  0
VERTEX
  8
SHEET
 10
25475.00
 20
26950.00
 40
0.00
 41
0.00
  0
VERTEX
  8
SHEET
 10
25500.00
 20
27000.00
  0
VERTEX
  8
SHEET
 10
25500.00
 20
27000.00
 40
0.00
 41
0.00
  0
VERTEX
  8
SHEET
 10
25600.00
 20
27000.00
  0
VERTEX
  8
SHEET
 10
25600.00
 20
27000.00
 40
0.00
 41
0.00
  0
VERTEX
  8
SHEET
 10
25575.00
 20
26950.00
 40
0.00
 41
0.00
  0
VERTEX
  8
SHEET
 10
25575.00
 20
26950.00
  0
SEQEND
  8
SHEET
  0
POLYLINE
  8
SHEET
 66
     1
 10
0.00
 20
0.00
 40
0.00
 41
0.00
  0
VERTEX
  8
SHEET
 10
25525.00
 20
27000.00
 40
0.00
 41
0.00
  0
VERTEX
  8
SHEET
 10
25500.00
 20
26950.00
 40
0.00
 41
0.00
  0
VERTEX
  8
SHEET
 10
25500.00
 20
26950.00
  0
SEQEND
  8
SHEET
  0
POLYLINE
  8
SHEET
 66
     1
 10
0.00
 20
0.00
 40
0.00
 41
0.00
  0
VERTEX
  8
SHEET
 10
25550.00
 20
27000.00
 40
0.00
 41
0.00
  0
VERTEX
  8
SHEET
 10
25525.00
 20
26950.00
 40
0.00
 41
0.00
  0
VERTEX
  8
SHEET
 10
25525.00
 20
26950.00
  0
SEQEND
  8
SHEET
  0
POLYLINE
  8
SHEET
 66
     1
 10
0.00
 20
0.00
 40
0.00
 41
0.00
  0
VERTEX
  8
SHEET
 10
25575.00
 20
27000.00
 40
0.00
 41
0.00
  0
VERTEX
  8
SHEET
 10
25550.00
 20
26950.00
 40
0.00
 41
0.00
  0
VERTEX
  8
SHEET
 10
25550.00
 20
26950.00
  0
SEQEND
  8
SHEET
  0
TEXT
  8
SHEET
 62
     5
 10
25500.00
 20
26875.00
 40
50.00
  1
TP16
  0
INSERT
  8
SHEET
  2
2
 10
20600.00
 20
23050.00
  0
INSERT
  8
SHEET
  2
2
 10
20600.00
 20
23300.00
  0
POLYLINE
  8
SHEET
 66
     1
 10
0.00
 20
0.00
 40
0.00
 41
0.00
  0
VERTEX
  8
SHEET
 10
20500.00
 20
23150.00
 40
0.00
 41
0.00
  0
VERTEX
  8
SHEET
 10
20700.00
 20
23150.00
 40
0.00
 41
0.00
  0
VERTEX
  8
SHEET
 10
20700.00
 20
23150.00
  0
SEQEND
  8
SHEET
  0
POLYLINE
  8
SHEET
 66
     1
 10
0.00
 20
0.00
 40
0.00
 41
0.00
  0
VERTEX
  8
SHEET
 10
20500.00
 20
23200.00
 40
0.00
 41
0.00
  0
VERTEX
  8
SHEET
 10
20700.00
 20
23200.00
 40
0.00
 41
0.00
  0
VERTEX
  8
SHEET
 10
20700.00
 20
23200.00
  0
SEQEND
  8
SHEET
  0
POLYLINE
  8
SHEET
 66
     1
 10
0.00
 20
0.00
 40
0.00
 41
0.00
  0
VERTEX
  8
SHEET
 10
20600.00
 20
23050.00
 40
0.00
 41
0.00
  0
VERTEX
  8
SHEET
 10
20600.00
 20
23150.00
 40
0.00
 41
0.00
  0
VERTEX
  8
SHEET
 10
20600.00
 20
23150.00
  0
SEQEND
  8
SHEET
  0
POLYLINE
  8
SHEET
 66
     1
 10
0.00
 20
0.00
 40
0.00
 41
0.00
  0
VERTEX
  8
SHEET
 10
20600.00
 20
23200.00
 40
0.00
 41
0.00
  0
VERTEX
  8
SHEET
 10
20600.00
 20
23300.00
 40
0.00
 41
0.00
  0
VERTEX
  8
SHEET
 10
20600.00
 20
23300.00
  0
SEQEND
  8
SHEET
  0
TEXT
  8
SHEET
 62
     5
 10
20700.00
 20
23400.00
 40
50.00
  1
C9
 50
90.000
  0
TEXT
  8
SHEET
 62
     5
 10
20760.00
 20
23400.00
 40
50.00
  1
50ufd
 50
90.000
  0
TEXT
  8
SHEET
 62
     5
 10
20820.00
 20
23400.00
 40
50.00
  1
2000VDC 
 50
90.000
  0
TEXT
  8
SHEET
 62
     5
 10
20880.00
 20
23400.00
 40
50.00
  1
OIL FILLED
 50
90.000
  0
INSERT
  8
SHEET
  2
2
 10
19900.00
 20
19850.00
 50
270.000
  0
TEXT
  8
SHEET
 62
    54
 10
20025.00
 20
19825.00
 40
50.00
  1
VI
  0
TEXT
  8
SHEET
 62
    145
 10
19925.00
 20
19875.00
 40
50.00
  1
1
 72
     2
 11
19975.00
 21
19875.00
  0
INSERT
  8
SHEET
  2
2
 10
20500.00
 20
19850.00
 50
270.000
  0
TEXT
  8
SHEET
 62
    54
 10
20175.00
 20
19825.00
 40
50.00
  1
+12V
 72
     2
 11
20375.00
 21
19825.00
  0
TEXT
  8
SHEET
 62
    145
 10
20425.00
 20
19875.00
 40
50.00
  1
3
  0
INSERT
  8
SHEET
  2
2
 10
20200.00
 20
19550.00
 50
270.000
  0
TEXT
  8
SHEET
 62
    54
 10
20150.00
 20
19675.00
 40
50.00
  1
GND
  0
TEXT
  8
SHEET
 62
    145
 10
20125.00
 20
19575.00
 40
50.00
  1
2
 72
     2
 11
20175.00
 21
19575.00
  0
POLYLINE
  8
SHEET
 66
     1
 10
0.00
 20
0.00
 70
     1
 40
0.00
 41
0.00
  0
VERTEX
  8
SHEET
 10
20000.00
 20
19650.00
 40
0.00
 41
0.00
  0
VERTEX
  8
SHEET
 10
20000.00
 20
19950.00
  0
VERTEX
  8
SHEET
 10
20000.00
 20
19950.00
 40
0.00
 41
0.00
  0
VERTEX
  8
SHEET
 10
20400.00
 20
19950.00
  0
VERTEX
  8
SHEET
 10
20400.00
 20
19950.00
 40
0.00
 41
0.00
  0
VERTEX
  8
SHEET
 10
20400.00
 20
19650.00
  0
VERTEX
  8
SHEET
 10
20400.00
 20
19650.00
 40
0.00
 41
0.00
  0
VERTEX
  8
SHEET
 10
20000.00
 20
19650.00
 40
0.00
 41
0.00
  0
VERTEX
  8
SHEET
 10
20000.00
 20
19650.00
  0
SEQEND
  8
SHEET
  0
POLYLINE
  8
SHEET
 66
     1
 10
0.00
 20
0.00
 40
0.00
 41
0.00
  0
VERTEX
  8
SHEET
 10
20000.00
 20
19850.00
 40
0.00
 41
0.00
  0
VERTEX
  8
SHEET
 10
19900.00
 20
19850.00
 40
0.00
 41
0.00
  0
VERTEX
  8
SHEET
 10
19900.00
 20
19850.00
  0
SEQEND
  8
SHEET
  0
POLYLINE
  8
SHEET
 66
     1
 10
0.00
 20
0.00
 40
0.00
 41
0.00
  0
VERTEX
  8
SHEET
 10
20500.00
 20
19850.00
 40
0.00
 41
0.00
  0
VERTEX
  8
SHEET
 10
20400.00
 20
19850.00
 40
0.00
 41
0.00
  0
VERTEX
  8
SHEET
 10
20400.00
 20
19850.00
  0
SEQEND
  8
SHEET
  0
POLYLINE
  8
SHEET
 66
     1
 10
0.00
 20
0.00
 40
0.00
 41
0.00
  0
VERTEX
  8
SHEET
 10
20200.00
 20
19650.00
 40
0.00
 41
0.00
  0
VERTEX
  8
SHEET
 10
20200.00
 20
19550.00
 40
0.00
 41
0.00
  0
VERTEX
  8
SHEET
 10
20200.00
 20
19550.00
  0
SEQEND
  8
SHEET
  0
TEXT
  8
SHEET
 62
     5
 10
20450.00
 20
20000.00
 40
50.00
  1
U2
  0
TEXT
  8
SHEET
 62
     5
 10
20450.00
 20
19940.00
 40
50.00
  1
7812
  0
INSERT
  8
SHEET
  2
2
 10
28750.00
 20
27900.00
 50
270.000
  0
TEXT
  8
SHEET
 62
    145
 10
28700.00
 20
27925.00
 40
50.00
  1
1
  0
INSERT
  8
SHEET
  2
2
 10
29275.00
 20
28125.00
 50
270.000
  0
TEXT
  8
SHEET
 62
    145
 10
29275.00
 20
28150.00
 40
50.00
  1
2
  0
INSERT
  8
SHEET
  2
2
 10
29275.00
 20
27975.00
 50
270.000
  0
TEXT
  8
SHEET
 62
    145
 10
29275.00
 20
28000.00
 40
50.00
  1
3
  0
INSERT
  8
SHEET
  2
TERMINAL
 10
29275.00
 20
27825.00
  0
TEXT
  8
SHEET
 62
    145
 10
29275.00
 20
27850.00
 40
50.00
  1
4
  0
INSERT
  8
SHEET
  2
TERMINAL
 10
29275.00
 20
27675.00
  0
TEXT
  8
SHEET
 62
    145
 10
29275.00
 20
27700.00
 40
50.00
  1
5
  0
POLYLINE
  8
SHEET
 66
     1
 10
0.00
 20
0.00
 40
0.00
 41
0.00
  0
VERTEX
  8
SHEET
 10
29175.00
 20
27725.00
 40
0.00
 41
0.00
 42
2.414
  0
VERTEX
  8
SHEET
 10
29150.00
 20
27700.00
  0
VERTEX
  8
SHEET
 10
29150.00
 20
27700.00
 40
0.00
 41
0.00
 42
0.414
  0
VERTEX
  8
SHEET
 10
29175.00
 20
27725.00
  0
VERTEX
  8
SHEET
 10
29175.00
 20
27725.00
 40
0.00
 41
0.00
  0
VERTEX
  8
SHEET
 10
29225.00
 20
27725.00
  0
VERTEX
  8
SHEET
 10
29225.00
 20
27725.00
 40
0.00
 41
0.00
  0
VERTEX
  8
SHEET
 10
29275.00
 20
27675.00
 40
0.00
 41
0.00
  0
VERTEX
  8
SHEET
 10
29275.00
 20
27675.00
  0
SEQEND
  8
SHEET
  0
POLYLINE
  8
SHEET
 66
     1
 10
0.00
 20
0.00
 40
0.00
 41
0.00
  0
VERTEX
  8
SHEET
 10
28775.00
 20
27900.00
 40
0.00
 41
0.00
 42
0.414
  0
VERTEX
  8
SHEET
 10
28800.00
 20
27875.00
  0
VERTEX
  8
SHEET
 10
28800.00
 20
27875.00
 40
0.00
 41
0.00
 42
0.414
  0
VERTEX
  8
SHEET
 10
28825.00
 20
27900.00
  0
VERTEX
  8
SHEET
 10
28825.00
 20
27900.00
 40
0.00
 41
0.00
 42
0.414
  0
VERTEX
  8
SHEET
 10
28800.00
 20
27925.00
  0
VERTEX
  8
SHEET
 10
28800.00
 20
27925.00
 40
0.00
 41
0.00
 42
0.414
  0
VERTEX
  8
SHEET
 10
28775.00
 20
27900.00
  0
VERTEX
  8
SHEET
 10
28775.00
 20
27900.00
 40
0.00
 41
0.00
  0
VERTEX
  8
SHEET
 10
28750.00
 20
27900.00
 40
0.00
 41
0.00
  0
VERTEX
  8
SHEET
 10
28750.00
 20
27900.00
  0
SEQEND
  8
SHEET
  0
POLYLINE
  8
SHEET
 66
     1
 10
0.00
 20
0.00
 40
0.00
 41
0.00
  0
VERTEX
  8
SHEET
 10
28823.00
 20
27908.00
 40
0.00
 41
0.00
  0
VERTEX
  8
SHEET
 10
29200.00
 20
28025.00
 40
0.00
 41
0.00
  0
VERTEX
  8
SHEET
 10
29200.00
 20
28025.00
  0
SEQEND
  8
SHEET
  0
POLYLINE
  8
SHEET
 66
     1
 10
0.00
 20
0.00
 40
0.00
 41
0.00
  0
VERTEX
  8
SHEET
 10
29175.00
 20
28075.00
 40
0.00
 41
0.00
 42
2.414
  0
VERTEX
  8
SHEET
 10
29150.00
 20
28050.00
  0
VERTEX
  8
SHEET
 10
29150.00
 20
28050.00
 40
0.00
 41
0.00
 42
0.414
  0
VERTEX
  8
SHEET
 10
29175.00
 20
28075.00
  0
VERTEX
  8
SHEET
 10
29175.00
 20
28075.00
 40
0.00
 41
0.00
  0
VERTEX
  8
SHEET
 10
29225.00
 20
28075.00
  0
VERTEX
  8
SHEET
 10
29225.00
 20
28075.00
 40
0.00
 41
0.00
  0
VERTEX
  8
SHEET
 10
29275.00
 20
28125.00
 40
0.00
 41
0.00
  0
VERTEX
  8
SHEET
 10
29275.00
 20
28125.00
  0
SEQEND
  8
SHEET
  0
POLYLINE
  8
SHEET
 66
     1
 10
0.00
 20
0.00
 40
0.00
 41
0.00
  0
VERTEX
  8
SHEET
 10
29200.00
 20
27850.00
 40
0.00
 41
0.00
 42
2.414
  0
VERTEX
  8
SHEET
 10
29175.00
 20
27825.00
  0
VERTEX
  8
SHEET
 10
29175.00
 20
27825.00
 40
0.00
 41
0.00
 42
0.414
  0
VERTEX
  8
SHEET
 10
29200.00
 20
27850.00
  0
VERTEX
  8
SHEET
 10
29200.00
 20
27850.00
 40
0.00
 41
0.00
  0
VERTEX
  8
SHEET
 10
29250.00
 20
27850.00
  0
VERTEX
  8
SHEET
 10
29250.00
 20
27850.00
 40
0.00
 41
0.00
  0
VERTEX
  8
SHEET
 10
29275.00
 20
27825.00
 40
0.00
 41
0.00
  0
VERTEX
  8
SHEET
 10
29275.00
 20
27825.00
  0
SEQEND
  8
SHEET
  0
POLYLINE
  8
SHEET
 66
     1
 10
0.00
 20
0.00
 40
0.00
 41
0.00
  0
VERTEX
  8
SHEET
 10
29200.00
 20
27950.00
 40
0.00
 41
0.00
 42
2.414
  0
VERTEX
  8
SHEET
 10
29175.00
 20
27925.00
  0
VERTEX
  8
SHEET
 10
29175.00
 20
27925.00
 40
0.00
 41
0.00
 42
0.414
  0
VERTEX
  8
SHEET
 10
29200.00
 20
27950.00
  0
VERTEX
  8
SHEET
 10
29200.00
 20
27950.00
 40
0.00
 41
0.00
  0
VERTEX
  8
SHEET
 10
29250.00
 20
27950.00
  0
VERTEX
  8
SHEET
 10
29250.00
 20
27950.00
 40
0.00
 41
0.00
  0
VERTEX
  8
SHEET
 10
29275.00
 20
27975.00
 40
0.00
 41
0.00
  0
VERTEX
  8
SHEET
 10
29275.00
 20
27975.00
  0
SEQEND
  8
SHEET
  0
TEXT
  8
SHEET
 62
     5
 10
28825.00
 20
27625.00
 40
50.00
  1
SW5
  0
TEXT
  8
SHEET
 62
     5
 10
28825.00
 20
27565.00
 40
50.00
  1
rotary switch 1x4
  0
TEXT
  8
SHEET
 62
     5
 10
28825.00
 20
27505.00
 40
50.00
  1
DSC
  0
INSERT
  8
SHEET
  2
2
 10
28050.00
 20
27150.00
 50
270.000
  0
INSERT
  8
SHEET
  2
2
 10
28650.00
 20
27150.00
 50
270.000
  0
INSERT
  8
SHEET
  2
2
 10
28350.00
 20
26850.00
 50
270.000
  0
POLYLINE
  8
SHEET
 66
     1
 10
0.00
 20
0.00
 70
     1
 40
0.00
 41
0.00
  0
VERTEX
  8
SHEET
 10
28150.00
 20
26950.00
 40
0.00
 41
0.00
  0
VERTEX
  8
SHEET
 10
28150.00
 20
27300.00
  0
VERTEX
  8
SHEET
 10
28150.00
 20
27300.00
 40
0.00
 41
0.00
  0
VERTEX
  8
SHEET
 10
28550.00
 20
27300.00
  0
VERTEX
  8
SHEET
 10
28550.00
 20
27300.00
 40
0.00
 41
0.00
  0
VERTEX
  8
SHEET
 10
28550.00
 20
26950.00
  0
VERTEX
  8
SHEET
 10
28550.00
 20
26950.00
 40
0.00
 41
0.00
  0
VERTEX
  8
SHEET
 10
28150.00
 20
26950.00
 40
0.00
 41
0.00
  0
VERTEX
  8
SHEET
 10
28150.00
 20
26950.00
  0
SEQEND
  8
SHEET
  0
POLYLINE
  8
SHEET
 66
     1
 10
0.00
 20
0.00
 40
0.00
 41
0.00
  0
VERTEX
  8
SHEET
 10
28150.00
 20
27150.00
 40
0.00
 41
0.00
  0
VERTEX
  8
SHEET
 10
28050.00
 20
27150.00
 40
0.00
 41
0.00
  0
VERTEX
  8
SHEET
 10
28050.00
 20
27150.00
  0
SEQEND
  8
SHEET
  0
POLYLINE
  8
SHEET
 66
     1
 10
0.00
 20
0.00
 40
0.00
 41
0.00
  0
VERTEX
  8
SHEET
 10
28650.00
 20
27150.00
 40
0.00
 41
0.00
  0
VERTEX
  8
SHEET
 10
28550.00
 20
27150.00
 40
0.00
 41
0.00
  0
VERTEX
  8
SHEET
 10
28550.00
 20
27150.00
  0
SEQEND
  8
SHEET
  0
POLYLINE
  8
SHEET
 66
     1
 10
0.00
 20
0.00
 40
0.00
 41
0.00
  0
VERTEX
  8
SHEET
 10
28350.00
 20
26950.00
 40
0.00
 41
0.00
  0
VERTEX
  8
SHEET
 10
28350.00
 20
26850.00
 40
0.00
 41
0.00
  0
VERTEX
  8
SHEET
 10
28350.00
 20
26850.00
  0
SEQEND
  8
SHEET
  0
TEXT
  8
SHEET
 62
     5
 10
28200.00
 20
27250.00
 40
0.00
  1
YBlock
  0
TEXT
  8
SHEET
 62
     5
 10
28250.00
 20
27000.00
 40
50.00
  1
METER
  0
INSERT
  8
SHEET
  2
2
 10
28350.00
 20
26550.00
 50
270.000
  0
INSERT
  8
SHEET
  2
__JUNCTIONS__
 10
28350.00
 20
26550.00
 50
270.000
  0
TEXT
  8
SHEET
 62
    145
 10
28275.00
 20
26475.00
 40
50.00
  1
1
 72
     2
 11
28325.00
 21
26475.00
  0
POLYLINE
  8
SHEET
 66
     1
 10
0.00
 20
0.00
 40
0.00
 41
0.00
  0
VERTEX
  8
SHEET
 10
28350.00
 20
26550.00
 40
0.00
 41
0.00
  0
VERTEX
  8
SHEET
 10
28350.00
 20
26400.00
 40
0.00
 41
0.00
  0
VERTEX
  8
SHEET
 10
28350.00
 20
26400.00
  0
SEQEND
  8
SHEET
  0
POLYLINE
  8
SHEET
 66
     1
 10
0.00
 20
0.00
 40
0.00
 41
0.00
  0
VERTEX
  8
SHEET
 10
28275.00
 20
26350.00
 40
0.00
 41
0.00
  0
VERTEX
  8
SHEET
 10
28300.00
 20
26400.00
  0
VERTEX
  8
SHEET
 10
28300.00
 20
26400.00
 40
0.00
 41
0.00
  0
VERTEX
  8
SHEET
 10
28400.00
 20
26400.00
  0
VERTEX
  8
SHEET
 10
28400.00
 20
26400.00
 40
0.00
 41
0.00
  0
VERTEX
  8
SHEET
 10
28375.00
 20
26350.00
 40
0.00
 41
0.00
  0
VERTEX
  8
SHEET
 10
28375.00
 20
26350.00
  0
SEQEND
  8
SHEET
  0
POLYLINE
  8
SHEET
 66
     1
 10
0.00
 20
0.00
 40
0.00
 41
0.00
  0
VERTEX
  8
SHEET
 10
28325.00
 20
26400.00
 40
0.00
 41
0.00
  0
VERTEX
  8
SHEET
 10
28300.00
 20
26350.00
 40
0.00
 41
0.00
  0
VERTEX
  8
SHEET
 10
28300.00
 20
26350.00
  0
SEQEND
  8
SHEET
  0
POLYLINE
  8
SHEET
 66
     1
 10
0.00
 20
0.00
 40
0.00
 41
0.00
  0
VERTEX
  8
SHEET
 10
28350.00
 20
26400.00
 40
0.00
 41
0.00
  0
VERTEX
  8
SHEET
 10
28325.00
 20
26350.00
 40
0.00
 41
0.00
  0
VERTEX
  8
SHEET
 10
28325.00
 20
26350.00
  0
SEQEND
  8
SHEET
  0
POLYLINE
  8
SHEET
 66
     1
 10
0.00
 20
0.00
 40
0.00
 41
0.00
  0
VERTEX
  8
SHEET
 10
28375.00
 20
26400.00
 40
0.00
 41
0.00
  0
VERTEX
  8
SHEET
 10
28350.00
 20
26350.00
 40
0.00
 41
0.00
  0
VERTEX
  8
SHEET
 10
28350.00
 20
26350.00
  0
SEQEND
  8
SHEET
  0
TEXT
  8
SHEET
 62
     5
 10
28300.00
 20
26275.00
 40
50.00
  1
TP18
  0
INSERT
  8
SHEET
  2
2
 10
27000.00
 20
27150.00
 50
270.000
  0
TEXT
  8
SHEET
 62
    54
 10
27125.00
 20
27125.00
 40
50.00
  1
VI
  0
TEXT
  8
SHEET
 62
    145
 10
27025.00
 20
27175.00
 40
50.00
  1
1
 72
     2
 11
27075.00
 21
27175.00
  0
INSERT
  8
SHEET
  2
2
 10
27600.00
 20
27150.00
 50
270.000
  0
TEXT
  8
SHEET
 62
    54
 10
27325.00
 20
27125.00
 40
50.00
  1
+5V
 72
     2
 11
27475.00
 21
27125.00
  0
TEXT
  8
SHEET
 62
    145
 10
27525.00
 20
27175.00
 40
50.00
  1
3
  0
INSERT
  8
SHEET
  2
2
 10
27300.00
 20
26850.00
 50
270.000
  0
TEXT
  8
SHEET
 62
    54
 10
27250.00
 20
26975.00
 40
50.00
  1
GND
  0
TEXT
  8
SHEET
 62
    145
 10
27225.00
 20
26875.00
 40
50.00
  1
2
 72
     2
 11
27275.00
 21
26875.00
  0
POLYLINE
  8
SHEET
 66
     1
 10
0.00
 20
0.00
 70
     1
 40
0.00
 41
0.00
  0
VERTEX
  8
SHEET
 10
27100.00
 20
26950.00
 40
0.00
 41
0.00
  0
VERTEX
  8
SHEET
 10
27100.00
 20
27250.00
  0
VERTEX
  8
SHEET
 10
27100.00
 20
27250.00
 40
0.00
 41
0.00
  0
VERTEX
  8
SHEET
 10
27500.00
 20
27250.00
  0
VERTEX
  8
SHEET
 10
27500.00
 20
27250.00
 40
0.00
 41
0.00
  0
VERTEX
  8
SHEET
 10
27500.00
 20
26950.00
  0
VERTEX
  8
SHEET
 10
27500.00
 20
26950.00
 40
0.00
 41
0.00
  0
VERTEX
  8
SHEET
 10
27100.00
 20
26950.00
 40
0.00
 41
0.00
  0
VERTEX
  8
SHEET
 10
27100.00
 20
26950.00
  0
SEQEND
  8
SHEET
  0
POLYLINE
  8
SHEET
 66
     1
 10
0.00
 20
0.00
 40
0.00
 41
0.00
  0
VERTEX
  8
SHEET
 10
27100.00
 20
27150.00
 40
0.00
 41
0.00
  0
VERTEX
  8
SHEET
 10
27000.00
 20
27150.00
 40
0.00
 41
0.00
  0
VERTEX
  8
SHEET
 10
27000.00
 20
27150.00
  0
SEQEND
  8
SHEET
  0
POLYLINE
  8
SHEET
 66
     1
 10
0.00
 20
0.00
 40
0.00
 41
0.00
  0
VERTEX
  8
SHEET
 10
27600.00
 20
27150.00
 40
0.00
 41
0.00
  0
VERTEX
  8
SHEET
 10
27500.00
 20
27150.00
 40
0.00
 41
0.00
  0
VERTEX
  8
SHEET
 10
27500.00
 20
27150.00
  0
SEQEND
  8
SHEET
  0
POLYLINE
  8
SHEET
 66
     1
 10
0.00
 20
0.00
 40
0.00
 41
0.00
  0
VERTEX
  8
SHEET
 10
27300.00
 20
26950.00
 40
0.00
 41
0.00
  0
VERTEX
  8
SHEET
 10
27300.00
 20
26850.00
 40
0.00
 41
0.00
  0
VERTEX
  8
SHEET
 10
27300.00
 20
26850.00
  0
SEQEND
  8
SHEET
  0
TEXT
  8
SHEET
 62
     5
 10
27375.00
 20
26875.00
 40
50.00
  1
U3
  0
TEXT
  8
SHEET
 62
     5
 10
27375.00
 20
26815.00
 40
50.00
  1
7805
  0
INSERT
  8
SHEET
  2
2
 10
19900.00
 20
21000.00
 50
270.000
  0
TEXT
  8
SHEET
 62
    54
 10
20025.00
 20
20975.00
 40
50.00
  1
VI
  0
TEXT
  8
SHEET
 62
    145
 10
19925.00
 20
21025.00
 40
50.00
  1
1
 72
     2
 11
19975.00
 21
21025.00
  0
INSERT
  8
SHEET
  2
2
 10
20500.00
 20
21000.00
 50
270.000
  0
TEXT
  8
SHEET
 62
    54
 10
20175.00
 20
20975.00
 40
50.00
  1
+15V
 72
     2
 11
20375.00
 21
20975.00
  0
TEXT
  8
SHEET
 62
    145
 10
20425.00
 20
21025.00
 40
50.00
  1
3
  0
INSERT
  8
SHEET
  2
2
 10
20200.00
 20
20700.00
 50
270.000
  0
TEXT
  8
SHEET
 62
    54
 10
20150.00
 20
20825.00
 40
50.00
  1
GND
  0
TEXT
  8
SHEET
 62
    145
 10
20125.00
 20
20725.00
 40
50.00
  1
2
 72
     2
 11
20175.00
 21
20725.00
  0
POLYLINE
  8
SHEET
 66
     1
 10
0.00
 20
0.00
 70
     1
 40
0.00
 41
0.00
  0
VERTEX
  8
SHEET
 10
20000.00
 20
20800.00
 40
0.00
 41
0.00
  0
VERTEX
  8
SHEET
 10
20000.00
 20
21100.00
  0
VERTEX
  8
SHEET
 10
20000.00
 20
21100.00
 40
0.00
 41
0.00
  0
VERTEX
  8
SHEET
 10
20400.00
 20
21100.00
  0
VERTEX
  8
SHEET
 10
20400.00
 20
21100.00
 40
0.00
 41
0.00
  0
VERTEX
  8
SHEET
 10
20400.00
 20
20800.00
  0
VERTEX
  8
SHEET
 10
20400.00
 20
20800.00
 40
0.00
 41
0.00
  0
VERTEX
  8
SHEET
 10
20000.00
 20
20800.00
 40
0.00
 41
0.00
  0
VERTEX
  8
SHEET
 10
20000.00
 20
20800.00
  0
SEQEND
  8
SHEET
  0
POLYLINE
  8
SHEET
 66
     1
 10
0.00
 20
0.00
 40
0.00
 41
0.00
  0
VERTEX
  8
SHEET
 10
20000.00
 20
21000.00
 40
0.00
 41
0.00
  0
VERTEX
  8
SHEET
 10
19900.00
 20
21000.00
 40
0.00
 41
0.00
  0
VERTEX
  8
SHEET
 10
19900.00
 20
21000.00
  0
SEQEND
  8
SHEET
  0
POLYLINE
  8
SHEET
 66
     1
 10
0.00
 20
0.00
 40
0.00
 41
0.00
  0
VERTEX
  8
SHEET
 10
20500.00
 20
21000.00
 40
0.00
 41
0.00
  0
VERTEX
  8
SHEET
 10
20400.00
 20
21000.00
 40
0.00
 41
0.00
  0
VERTEX
  8
SHEET
 10
20400.00
 20
21000.00
  0
SEQEND
  8
SHEET
  0
POLYLINE
  8
SHEET
 66
     1
 10
0.00
 20
0.00
 40
0.00
 41
0.00
  0
VERTEX
  8
SHEET
 10
20200.00
 20
20800.00
 40
0.00
 41
0.00
  0
VERTEX
  8
SHEET
 10
20200.00
 20
20700.00
 40
0.00
 41
0.00
  0
VERTEX
  8
SHEET
 10
20200.00
 20
20700.00
  0
SEQEND
  8
SHEET
  0
TEXT
  8
SHEET
 62
     5
 10
20100.00
 20
21250.00
 40
50.00
  1
U4
  0
TEXT
  8
SHEET
 62
     5
 10
20100.00
 20
21190.00
 40
50.00
  1
7815
  0
INSERT
  8
SHEET
  2
2
 10
20750.00
 20
20750.00
  0
INSERT
  8
SHEET
  2
2
 10
20750.00
 20
21000.00
  0
INSERT
  8
SHEET
  2
__JUNCTIONS__
 10
20750.00
 20
21000.00
  0
POLYLINE
  8
SHEET
 66
     1
 10
0.00
 20
0.00
 40
0.00
 41
0.00
  0
VERTEX
  8
SHEET
 10
20650.00
 20
20850.00
 40
0.00
 41
0.00
  0
VERTEX
  8
SHEET
 10
20850.00
 20
20850.00
 40
0.00
 41
0.00
  0
VERTEX
  8
SHEET
 10
20850.00
 20
20850.00
  0
SEQEND
  8
SHEET
  0
POLYLINE
  8
SHEET
 66
     1
 10
0.00
 20
0.00
 40
0.00
 41
0.00
  0
VERTEX
  8
SHEET
 10
20650.00
 20
20900.00
 40
0.00
 41
0.00
  0
VERTEX
  8
SHEET
 10
20850.00
 20
20900.00
 40
0.00
 41
0.00
  0
VERTEX
  8
SHEET
 10
20850.00
 20
20900.00
  0
SEQEND
  8
SHEET
  0
POLYLINE
  8
SHEET
 66
     1
 10
0.00
 20
0.00
 40
0.00
 41
0.00
  0
VERTEX
  8
SHEET
 10
20750.00
 20
20750.00
 40
0.00
 41
0.00
  0
VERTEX
  8
SHEET
 10
20750.00
 20
20850.00
 40
0.00
 41
0.00
  0
VERTEX
  8
SHEET
 10
20750.00
 20
20850.00
  0
SEQEND
  8
SHEET
  0
POLYLINE
  8
SHEET
 66
     1
 10
0.00
 20
0.00
 40
0.00
 41
0.00
  0
VERTEX
  8
SHEET
 10
20750.00
 20
20900.00
 40
0.00
 41
0.00
  0
VERTEX
  8
SHEET
 10
20750.00
 20
21000.00
 40
0.00
 41
0.00
  0
VERTEX
  8
SHEET
 10
20750.00
 20
21000.00
  0
SEQEND
  8
SHEET
  0
TEXT
  8
SHEET
 62
     5
 10
20800.00
 20
20400.00
 40
50.00
  1
C13
 50
90.000
  0
TEXT
  8
SHEET
 62
     5
 10
20860.00
 20
20400.00
 40
50.00
  1
0.1ufd
 50
90.000
  0
TEXT
  8
SHEET
 62
     5
 10
20920.00
 20
20400.00
 40
50.00
  1
De-Spike
 50
90.000
  0
INSERT
  8
SHEET
  2
2
 10
20200.00
 20
20450.00
 50
270.000
  0
TEXT
  8
SHEET
 62
    145
 10
20125.00
 20
20375.00
 40
50.00
  1
1
 72
     2
 11
20175.00
 21
20375.00
  0
POLYLINE
  8
SHEET
 66
     1
 10
0.00
 20
0.00
 40
0.00
 41
0.00
  0
VERTEX
  8
SHEET
 10
20200.00
 20
20450.00
 40
0.00
 41
0.00
  0
VERTEX
  8
SHEET
 10
20200.00
 20
20300.00
 40
0.00
 41
0.00
  0
VERTEX
  8
SHEET
 10
20200.00
 20
20300.00
  0
SEQEND
  8
SHEET
  0
POLYLINE
  8
SHEET
 66
     1
 10
0.00
 20
0.00
 40
0.00
 41
0.00
  0
VERTEX
  8
SHEET
 10
20125.00
 20
20250.00
 40
0.00
 41
0.00
  0
VERTEX
  8
SHEET
 10
20150.00
 20
20300.00
  0
VERTEX
  8
SHEET
 10
20150.00
 20
20300.00
 40
0.00
 41
0.00
  0
VERTEX
  8
SHEET
 10
20250.00
 20
20300.00
  0
VERTEX
  8
SHEET
 10
20250.00
 20
20300.00
 40
0.00
 41
0.00
  0
VERTEX
  8
SHEET
 10
20225.00
 20
20250.00
 40
0.00
 41
0.00
  0
VERTEX
  8
SHEET
 10
20225.00
 20
20250.00
  0
SEQEND
  8
SHEET
  0
POLYLINE
  8
SHEET
 66
     1
 10
0.00
 20
0.00
 40
0.00
 41
0.00
  0
VERTEX
  8
SHEET
 10
20175.00
 20
20300.00
 40
0.00
 41
0.00
  0
VERTEX
  8
SHEET
 10
20150.00
 20
20250.00
 40
0.00
 41
0.00
  0
VERTEX
  8
SHEET
 10
20150.00
 20
20250.00
  0
SEQEND
  8
SHEET
  0
POLYLINE
  8
SHEET
 66
     1
 10
0.00
 20
0.00
 40
0.00
 41
0.00
  0
VERTEX
  8
SHEET
 10
20200.00
 20
20300.00
 40
0.00
 41
0.00
  0
VERTEX
  8
SHEET
 10
20175.00
 20
20250.00
 40
0.00
 41
0.00
  0
VERTEX
  8
SHEET
 10
20175.00
 20
20250.00
  0
SEQEND
  8
SHEET
  0
POLYLINE
  8
SHEET
 66
     1
 10
0.00
 20
0.00
 40
0.00
 41
0.00
  0
VERTEX
  8
SHEET
 10
20225.00
 20
20300.00
 40
0.00
 41
0.00
  0
VERTEX
  8
SHEET
 10
20200.00
 20
20250.00
 40
0.00
 41
0.00
  0
VERTEX
  8
SHEET
 10
20200.00
 20
20250.00
  0
SEQEND
  8
SHEET
  0
TEXT
  8
SHEET
 62
     5
 10
20150.00
 20
20175.00
 40
50.00
  1
TP19
  0
INSERT
  8
SHEET
  2
2
 10
27900.00
 20
24600.00
 50
270.000
  0
TEXT
  8
SHEET
 62
    54
 10
27925.00
 20
24500.00
 40
50.00
  1
C
  0
INSERT
  8
SHEET
  2
2
 10
28300.00
 20
24800.00
 50
270.000
  0
TEXT
  8
SHEET
 62
    54
 10
28225.00
 20
24625.00
 40
50.00
  1
NC
  0
INSERT
  8
SHEET
  2
2
 10
28300.00
 20
24400.00
 50
270.000
  0
TEXT
  8
SHEET
 62
    54
 10
28225.00
 20
24500.00
 40
50.00
  1
NO
  0
POLYLINE
  8
SHEET
 66
     1
 10
0.00
 20
0.00
 40
0.00
 41
0.00
  0
VERTEX
  8
SHEET
 10
28300.00
 20
24775.00
 40
0.00
 41
0.00
 42
0.414
  0
VERTEX
  8
SHEET
 10
28275.00
 20
24750.00
  0
VERTEX
  8
SHEET
 10
28275.00
 20
24750.00
 40
0.00
 41
0.00
 42
0.414
  0
VERTEX
  8
SHEET
 10
28300.00
 20
24725.00
  0
VERTEX
  8
SHEET
 10
28300.00
 20
24725.00
 40
0.00
 41
0.00
 42
0.414
  0
VERTEX
  8
SHEET
 10
28325.00
 20
24750.00
  0
VERTEX
  8
SHEET
 10
28325.00
 20
24750.00
 40
0.00
 41
0.00
 42
0.414
  0
VERTEX
  8
SHEET
 10
28300.00
 20
24775.00
  0
VERTEX
  8
SHEET
 10
28300.00
 20
24775.00
 40
0.00
 41
0.00
  0
VERTEX
  8
SHEET
 10
28300.00
 20
24800.00
 40
0.00
 41
0.00
  0
VERTEX
  8
SHEET
 10
28300.00
 20
24800.00
  0
SEQEND
  8
SHEET
  0
POLYLINE
  8
SHEET
 66
     1
 10
0.00
 20
0.00
 40
0.00
 41
0.00
  0
VERTEX
  8
SHEET
 10
28300.00
 20
24425.00
 40
0.00
 41
0.00
 42
0.414
  0
VERTEX
  8
SHEET
 10
28325.00
 20
24450.00
  0
VERTEX
  8
SHEET
 10
28325.00
 20
24450.00
 40
0.00
 41
0.00
 42
0.414
  0
VERTEX
  8
SHEET
 10
28300.00
 20
24475.00
  0
VERTEX
  8
SHEET
 10
28300.00
 20
24475.00
 40
0.00
 41
0.00
 42
0.414
  0
VERTEX
  8
SHEET
 10
28275.00
 20
24450.00
  0
VERTEX
  8
SHEET
 10
28275.00
 20
24450.00
 40
0.00
 41
0.00
 42
0.414
  0
VERTEX
  8
SHEET
 10
28300.00
 20
24425.00
  0
VERTEX
  8
SHEET
 10
28300.00
 20
24425.00
 40
0.00
 41
0.00
  0
VERTEX
  8
SHEET
 10
28300.00
 20
24400.00
 40
0.00
 41
0.00
  0
VERTEX
  8
SHEET
 10
28300.00
 20
24400.00
  0
SEQEND
  8
SHEET
  0
POLYLINE
  8
SHEET
 66
     1
 10
0.00
 20
0.00
 40
0.00
 41
0.00
  0
VERTEX
  8
SHEET
 10
27925.00
 20
24600.00
 40
0.00
 41
0.00
 42
0.414
  0
VERTEX
  8
SHEET
 10
27950.00
 20
24575.00
  0
VERTEX
  8
SHEET
 10
27950.00
 20
24575.00
 40
0.00
 41
0.00
 42
0.414
  0
VERTEX
  8
SHEET
 10
27975.00
 20
24600.00
  0
VERTEX
  8
SHEET
 10
27975.00
 20
24600.00
 40
0.00
 41
0.00
 42
0.414
  0
VERTEX
  8
SHEET
 10
27950.00
 20
24625.00
  0
VERTEX
  8
SHEET
 10
27950.00
 20
24625.00
 40
0.00
 41
0.00
 42
0.414
  0
VERTEX
  8
SHEET
 10
27925.00
 20
24600.00
  0
VERTEX
  8
SHEET
 10
27925.00
 20
24600.00
 40
0.00
 41
0.00
  0
VERTEX
  8
SHEET
 10
27900.00
 20
24600.00
 40
0.00
 41
0.00
  0
VERTEX
  8
SHEET
 10
27900.00
 20
24600.00
  0
SEQEND
  8
SHEET
  0
POLYLINE
  8
SHEET
 66
     1
 10
0.00
 20
0.00
 40
0.00
 41
0.00
  0
VERTEX
  8
SHEET
 10
28300.00
 20
24750.00
 40
0.00
 41
0.00
  0
VERTEX
  8
SHEET
 10
28299.00
 20
24750.00
 40
0.00
 41
0.00
  0
VERTEX
  8
SHEET
 10
28299.00
 20
24750.00
  0
SEQEND
  8
SHEET
  0
POLYLINE
  8
SHEET
 66
     1
 10
0.00
 20
0.00
 40
0.00
 41
0.00
  0
VERTEX
  8
SHEET
 10
27973.00
 20
24608.00
 40
0.00
 41
0.00
  0
VERTEX
  8
SHEET
 10
28350.00
 20
24740.00
 40
0.00
 41
0.00
  0
VERTEX
  8
SHEET
 10
28350.00
 20
24740.00
  0
SEQEND
  8
SHEET
  0
TEXT
  8
SHEET
 62
     5
 10
27975.00
 20
24425.00
 40
50.00
  1
SW6a
  0
TEXT
  8
SHEET
 62
     5
 10
27975.00
 20
24365.00
 40
50.00
  1
DPST
  0
INSERT
  8
SHEET
  2
2
 10
27950.00
 20
23950.00
 50
270.000
  0
TEXT
  8
SHEET
 62
    54
 10
27975.00
 20
23850.00
 40
50.00
  1
C
  0
TEXT
  8
SHEET
 62
    145
 10
27975.00
 20
24000.00
 40
50.00
  1
5
  0
INSERT
  8
SHEET
  2
2
 10
28350.00
 20
24150.00
 50
270.000
  0
TEXT
  8
SHEET
 62
    54
 10
28275.00
 20
23975.00
 40
50.00
  1
NC
  0
TEXT
  8
SHEET
 62
    145
 10
28250.00
 20
24075.00
 40
50.00
  1
4
 72
     2
 11
28300.00
 21
24075.00
  0
INSERT
  8
SHEET
  2
2
 10
28350.00
 20
23750.00
 50
270.000
  0
TEXT
  8
SHEET
 62
    54
 10
28275.00
 20
23850.00
 40
50.00
  1
NO
  0
TEXT
  8
SHEET
 62
    145
 10
28250.00
 20
23775.00
 40
50.00
  1
6
 72
     2
 11
28300.00
 21
23775.00
  0
POLYLINE
  8
SHEET
 66
     1
 10
0.00
 20
0.00
 40
0.00
 41
0.00
  0
VERTEX
  8
SHEET
 10
28350.00
 20
24125.00
 40
0.00
 41
0.00
 42
0.414
  0
VERTEX
  8
SHEET
 10
28325.00
 20
24100.00
  0
VERTEX
  8
SHEET
 10
28325.00
 20
24100.00
 40
0.00
 41
0.00
 42
0.414
  0
VERTEX
  8
SHEET
 10
28350.00
 20
24075.00
  0
VERTEX
  8
SHEET
 10
28350.00
 20
24075.00
 40
0.00
 41
0.00
 42
0.414
  0
VERTEX
  8
SHEET
 10
28375.00
 20
24100.00
  0
VERTEX
  8
SHEET
 10
28375.00
 20
24100.00
 40
0.00
 41
0.00
 42
0.414
  0
VERTEX
  8
SHEET
 10
28350.00
 20
24125.00
  0
VERTEX
  8
SHEET
 10
28350.00
 20
24125.00
 40
0.00
 41
0.00
  0
VERTEX
  8
SHEET
 10
28350.00
 20
24150.00
 40
0.00
 41
0.00
  0
VERTEX
  8
SHEET
 10
28350.00
 20
24150.00
  0
SEQEND
  8
SHEET
  0
POLYLINE
  8
SHEET
 66
     1
 10
0.00
 20
0.00
 40
0.00
 41
0.00
  0
VERTEX
  8
SHEET
 10
28350.00
 20
23775.00
 40
0.00
 41
0.00
 42
0.414
  0
VERTEX
  8
SHEET
 10
28375.00
 20
23800.00
  0
VERTEX
  8
SHEET
 10
28375.00
 20
23800.00
 40
0.00
 41
0.00
 42
0.414
  0
VERTEX
  8
SHEET
 10
28350.00
 20
23825.00
  0
VERTEX
  8
SHEET
 10
28350.00
 20
23825.00
 40
0.00
 41
0.00
 42
0.414
  0
VERTEX
  8
SHEET
 10
28325.00
 20
23800.00
  0
VERTEX
  8
SHEET
 10
28325.00
 20
23800.00
 40
0.00
 41
0.00
 42
0.414
  0
VERTEX
  8
SHEET
 10
28350.00
 20
23775.00
  0
VERTEX
  8
SHEET
 10
28350.00
 20
23775.00
 40
0.00
 41
0.00
  0
VERTEX
  8
SHEET
 10
28350.00
 20
23750.00
 40
0.00
 41
0.00
  0
VERTEX
  8
SHEET
 10
28350.00
 20
23750.00
  0
SEQEND
  8
SHEET
  0
POLYLINE
  8
SHEET
 66
     1
 10
0.00
 20
0.00
 40
0.00
 41
0.00
  0
VERTEX
  8
SHEET
 10
27975.00
 20
23950.00
 40
0.00
 41
0.00
 42
0.414
  0
VERTEX
  8
SHEET
 10
28000.00
 20
23925.00
  0
VERTEX
  8
SHEET
 10
28000.00
 20
23925.00
 40
0.00
 41
0.00
 42
0.414
  0
VERTEX
  8
SHEET
 10
28025.00
 20
23950.00
  0
VERTEX
  8
SHEET
 10
28025.00
 20
23950.00
 40
0.00
 41
0.00
 42
0.414
  0
VERTEX
  8
SHEET
 10
28000.00
 20
23975.00
  0
VERTEX
  8
SHEET
 10
28000.00
 20
23975.00
 40
0.00
 41
0.00
 42
0.414
  0
VERTEX
  8
SHEET
 10
27975.00
 20
23950.00
  0
VERTEX
  8
SHEET
 10
27975.00
 20
23950.00
 40
0.00
 41
0.00
  0
VERTEX
  8
SHEET
 10
27950.00
 20
23950.00
 40
0.00
 41
0.00
  0
VERTEX
  8
SHEET
 10
27950.00
 20
23950.00
  0
SEQEND
  8
SHEET
  0
POLYLINE
  8
SHEET
 66
     1
 10
0.00
 20
0.00
 40
0.00
 41
0.00
  0
VERTEX
  8
SHEET
 10
28350.00
 20
24100.00
 40
0.00
 41
0.00
  0
VERTEX
  8
SHEET
 10
28349.00
 20
24100.00
 40
0.00
 41
0.00
  0
VERTEX
  8
SHEET
 10
28349.00
 20
24100.00
  0
SEQEND
  8
SHEET
  0
POLYLINE
  8
SHEET
 66
     1
 10
0.00
 20
0.00
 40
0.00
 41
0.00
  0
VERTEX
  8
SHEET
 10
28023.00
 20
23958.00
 40
0.00
 41
0.00
  0
VERTEX
  8
SHEET
 10
28400.00
 20
24090.00
 40
0.00
 41
0.00
  0
VERTEX
  8
SHEET
 10
28400.00
 20
24090.00
  0
SEQEND
  8
SHEET
  0
TEXT
  8
SHEET
 62
     5
 10
28025.00
 20
23775.00
 40
50.00
  1
SW6b
  0
TEXT
  8
SHEET
 62
     5
 10
28025.00
 20
23715.00
 40
50.00
  1
DPST
  0
INSERT
  8
SHEET
  2
2
 10
28900.00
 20
23750.00
 50
270.000
  0
INSERT
  8
SHEET
  2
__JUNCTIONS__
 10
28900.00
 20
23750.00
 50
270.000
  0
TEXT
  8
SHEET
 62
    145
 10
28825.00
 20
23675.00
 40
50.00
  1
1
 72
     2
 11
28875.00
 21
23675.00
  0
POLYLINE
  8
SHEET
 66
     1
 10
0.00
 20
0.00
 40
0.00
 41
0.00
  0
VERTEX
  8
SHEET
 10
28900.00
 20
23750.00
 40
0.00
 41
0.00
  0
VERTEX
  8
SHEET
 10
28900.00
 20
23600.00
 40
0.00
 41
0.00
  0
VERTEX
  8
SHEET
 10
28900.00
 20
23600.00
  0
SEQEND
  8
SHEET
  0
POLYLINE
  8
SHEET
 66
     1
 10
0.00
 20
0.00
 40
0.00
 41
0.00
  0
VERTEX
  8
SHEET
 10
28825.00
 20
23550.00
 40
0.00
 41
0.00
  0
VERTEX
  8
SHEET
 10
28850.00
 20
23600.00
  0
VERTEX
  8
SHEET
 10
28850.00
 20
23600.00
 40
0.00
 41
0.00
  0
VERTEX
  8
SHEET
 10
28950.00
 20
23600.00
  0
VERTEX
  8
SHEET
 10
28950.00
 20
23600.00
 40
0.00
 41
0.00
  0
VERTEX
  8
SHEET
 10
28925.00
 20
23550.00
 40
0.00
 41
0.00
  0
VERTEX
  8
SHEET
 10
28925.00
 20
23550.00
  0
SEQEND
  8
SHEET
  0
POLYLINE
  8
SHEET
 66
     1
 10
0.00
 20
0.00
 40
0.00
 41
0.00
  0
VERTEX
  8
SHEET
 10
28875.00
 20
23600.00
 40
0.00
 41
0.00
  0
VERTEX
  8
SHEET
 10
28850.00
 20
23550.00
 40
0.00
 41
0.00
  0
VERTEX
  8
SHEET
 10
28850.00
 20
23550.00
  0
SEQEND
  8
SHEET
  0
POLYLINE
  8
SHEET
 66
     1
 10
0.00
 20
0.00
 40
0.00
 41
0.00
  0
VERTEX
  8
SHEET
 10
28900.00
 20
23600.00
 40
0.00
 41
0.00
  0
VERTEX
  8
SHEET
 10
28875.00
 20
23550.00
 40
0.00
 41
0.00
  0
VERTEX
  8
SHEET
 10
28875.00
 20
23550.00
  0
SEQEND
  8
SHEET
  0
POLYLINE
  8
SHEET
 66
     1
 10
0.00
 20
0.00
 40
0.00
 41
0.00
  0
VERTEX
  8
SHEET
 10
28925.00
 20
23600.00
 40
0.00
 41
0.00
  0
VERTEX
  8
SHEET
 10
28900.00
 20
23550.00
 40
0.00
 41
0.00
  0
VERTEX
  8
SHEET
 10
28900.00
 20
23550.00
  0
SEQEND
  8
SHEET
  0
TEXT
  8
SHEET
 62
     5
 10
28850.00
 20
23475.00
 40
50.00
  1
TP20
  0
INSERT
  8
SHEET
  2
2
 10
20050.00
 20
21400.00
  0
INSERT
  8
SHEET
  2
2
 10
20050.00
 20
21900.00
  0
POLYLINE
  8
SHEET
 66
     1
 10
0.00
 20
0.00
 40
0.00
 41
0.00
  0
VERTEX
  8
SHEET
 10
20050.00
 20
21900.00
 40
0.00
 41
0.00
  0
VERTEX
  8
SHEET
 10
20050.00
 20
21800.00
  0
VERTEX
  8
SHEET
 10
20050.00
 20
21800.00
 40
0.00
 41
0.00
  0
VERTEX
  8
SHEET
 10
20000.00
 20
21775.00
  0
VERTEX
  8
SHEET
 10
20000.00
 20
21775.00
 40
0.00
 41
0.00
  0
VERTEX
  8
SHEET
 10
20100.00
 20
21725.00
  0
VERTEX
  8
SHEET
 10
20100.00
 20
21725.00
 40
0.00
 41
0.00
  0
VERTEX
  8
SHEET
 10
20000.00
 20
21675.00
  0
VERTEX
  8
SHEET
 10
20000.00
 20
21675.00
 40
0.00
 41
0.00
  0
VERTEX
  8
SHEET
 10
20100.00
 20
21625.00
  0
VERTEX
  8
SHEET
 10
20100.00
 20
21625.00
 40
0.00
 41
0.00
  0
VERTEX
  8
SHEET
 10
20000.00
 20
21575.00
  0
VERTEX
  8
SHEET
 10
20000.00
 20
21575.00
 40
0.00
 41
0.00
  0
VERTEX
  8
SHEET
 10
20100.00
 20
21525.00
  0
VERTEX
  8
SHEET
 10
20100.00
 20
21525.00
 40
0.00
 41
0.00
  0
VERTEX
  8
SHEET
 10
20050.00
 20
21500.00
  0
VERTEX
  8
SHEET
 10
20050.00
 20
21500.00
 40
0.00
 41
0.00
  0
VERTEX
  8
SHEET
 10
20050.00
 20
21400.00
 40
0.00
 41
0.00
  0
VERTEX
  8
SHEET
 10
20050.00
 20
21400.00
  0
SEQEND
  8
SHEET
  0
TEXT
  8
SHEET
 62
     5
 10
20175.00
 20
21575.00
 40
50.00
  1
R3
 50
90.000
  0
TEXT
  8
SHEET
 62
     5
 10
20235.00
 20
21575.00
 40
50.00
  1
2M
 50
90.000
  0
INSERT
  8
SHEET
  2
2
 10
22150.00
 20
27800.00
 50
270.000
  0
INSERT
  8
SHEET
  2
2
 10
22650.00
 20
27800.00
 50
270.000
  0
POLYLINE
  8
SHEET
 66
     1
 10
0.00
 20
0.00
 40
0.00
 41
0.00
  0
VERTEX
  8
SHEET
 10
22650.00
 20
27800.00
 40
0.00
 41
0.00
  0
VERTEX
  8
SHEET
 10
22550.00
 20
27800.00
  0
VERTEX
  8
SHEET
 10
22550.00
 20
27800.00
 40
0.00
 41
0.00
  0
VERTEX
  8
SHEET
 10
22525.00
 20
27850.00
  0
VERTEX
  8
SHEET
 10
22525.00
 20
27850.00
 40
0.00
 41
0.00
  0
VERTEX
  8
SHEET
 10
22475.00
 20
27750.00
  0
VERTEX
  8
SHEET
 10
22475.00
 20
27750.00
 40
0.00
 41
0.00
  0
VERTEX
  8
SHEET
 10
22425.00
 20
27850.00
  0
VERTEX
  8
SHEET
 10
22425.00
 20
27850.00
 40
0.00
 41
0.00
  0
VERTEX
  8
SHEET
 10
22375.00
 20
27750.00
  0
VERTEX
  8
SHEET
 10
22375.00
 20
27750.00
 40
0.00
 41
0.00
  0
VERTEX
  8
SHEET
 10
22325.00
 20
27850.00
  0
VERTEX
  8
SHEET
 10
22325.00
 20
27850.00
 40
0.00
 41
0.00
  0
VERTEX
  8
SHEET
 10
22275.00
 20
27750.00
  0
VERTEX
  8
SHEET
 10
22275.00
 20
27750.00
 40
0.00
 41
0.00
  0
VERTEX
  8
SHEET
 10
22250.00
 20
27800.00
  0
VERTEX
  8
SHEET
 10
22250.00
 20
27800.00
 40
0.00
 41
0.00
  0
VERTEX
  8
SHEET
 10
22150.00
 20
27800.00
 40
0.00
 41
0.00
  0
VERTEX
  8
SHEET
 10
22150.00
 20
27800.00
  0
SEQEND
  8
SHEET
  0
TEXT
  8
SHEET
 62
     5
 10
22325.00
 20
27675.00
 40
50.00
  1
R27
  0
TEXT
  8
SHEET
 62
     5
 10
22325.00
 20
27615.00
 40
50.00
  1
2.2k
  0
INSERT
  8
SHEET
  2
2
 10
22800.00
 20
27300.00
  0
INSERT
  8
SHEET
  2
2
 10
22800.00
 20
27800.00
  0
INSERT
  8
SHEET
  2
__JUNCTIONS__
 10
22800.00
 20
27800.00
  0
POLYLINE
  8
SHEET
 66
     1
 10
0.00
 20
0.00
 40
0.00
 41
0.00
  0
VERTEX
  8
SHEET
 10
22800.00
 20
27800.00
 40
0.00
 41
0.00
  0
VERTEX
  8
SHEET
 10
22800.00
 20
27700.00
  0
VERTEX
  8
SHEET
 10
22800.00
 20
27700.00
 40
0.00
 41
0.00
  0
VERTEX
  8
SHEET
 10
22750.00
 20
27675.00
  0
VERTEX
  8
SHEET
 10
22750.00
 20
27675.00
 40
0.00
 41
0.00
  0
VERTEX
  8
SHEET
 10
22850.00
 20
27625.00
  0
VERTEX
  8
SHEET
 10
22850.00
 20
27625.00
 40
0.00
 41
0.00
  0
VERTEX
  8
SHEET
 10
22750.00
 20
27575.00
  0
VERTEX
  8
SHEET
 10
22750.00
 20
27575.00
 40
0.00
 41
0.00
  0
VERTEX
  8
SHEET
 10
22850.00
 20
27525.00
  0
VERTEX
  8
SHEET
 10
22850.00
 20
27525.00
 40
0.00
 41
0.00
  0
VERTEX
  8
SHEET
 10
22750.00
 20
27475.00
  0
VERTEX
  8
SHEET
 10
22750.00
 20
27475.00
 40
0.00
 41
0.00
  0
VERTEX
  8
SHEET
 10
22850.00
 20
27425.00
  0
VERTEX
  8
SHEET
 10
22850.00
 20
27425.00
 40
0.00
 41
0.00
  0
VERTEX
  8
SHEET
 10
22800.00
 20
27400.00
  0
VERTEX
  8
SHEET
 10
22800.00
 20
27400.00
 40
0.00
 41
0.00
  0
VERTEX
  8
SHEET
 10
22800.00
 20
27300.00
 40
0.00
 41
0.00
  0
VERTEX
  8
SHEET
 10
22800.00
 20
27300.00
  0
SEQEND
  8
SHEET
  0
TEXT
  8
SHEET
 62
     5
 10
22925.00
 20
27475.00
 40
50.00
  1
R28
 50
90.000
  0
TEXT
  8
SHEET
 62
     5
 10
22985.00
 20
27475.00
 40
50.00
  1
1M
 50
90.000
  0
INSERT
  8
SHEET
  2
2
 10
21600.00
 20
27500.00
 50
270.000
  0
INSERT
  8
SHEET
  2
2
 10
22100.00
 20
27500.00
 50
270.000
  0
POLYLINE
  8
SHEET
 66
     1
 10
0.00
 20
0.00
 40
0.00
 41
0.00
  0
VERTEX
  8
SHEET
 10
22100.00
 20
27500.00
 40
0.00
 41
0.00
  0
VERTEX
  8
SHEET
 10
22000.00
 20
27500.00
  0
VERTEX
  8
SHEET
 10
22000.00
 20
27500.00
 40
0.00
 41
0.00
  0
VERTEX
  8
SHEET
 10
21975.00
 20
27550.00
  0
VERTEX
  8
SHEET
 10
21975.00
 20
27550.00
 40
0.00
 41
0.00
  0
VERTEX
  8
SHEET
 10
21925.00
 20
27450.00
  0
VERTEX
  8
SHEET
 10
21925.00
 20
27450.00
 40
0.00
 41
0.00
  0
VERTEX
  8
SHEET
 10
21875.00
 20
27550.00
  0
VERTEX
  8
SHEET
 10
21875.00
 20
27550.00
 40
0.00
 41
0.00
  0
VERTEX
  8
SHEET
 10
21825.00
 20
27450.00
  0
VERTEX
  8
SHEET
 10
21825.00
 20
27450.00
 40
0.00
 41
0.00
  0
VERTEX
  8
SHEET
 10
21775.00
 20
27550.00
  0
VERTEX
  8
SHEET
 10
21775.00
 20
27550.00
 40
0.00
 41
0.00
  0
VERTEX
  8
SHEET
 10
21725.00
 20
27450.00
  0
VERTEX
  8
SHEET
 10
21725.00
 20
27450.00
 40
0.00
 41
0.00
  0
VERTEX
  8
SHEET
 10
21700.00
 20
27500.00
  0
VERTEX
  8
SHEET
 10
21700.00
 20
27500.00
 40
0.00
 41
0.00
  0
VERTEX
  8
SHEET
 10
21600.00
 20
27500.00
 40
0.00
 41
0.00
  0
VERTEX
  8
SHEET
 10
21600.00
 20
27500.00
  0
SEQEND
  8
SHEET
  0
TEXT
  8
SHEET
 62
     5
 10
21775.00
 20
27375.00
 40
50.00
  1
R31
  0
TEXT
  8
SHEET
 62
     5
 10
21775.00
 20
27315.00
 40
50.00
  1
2.2K
  0
INSERT
  8
SHEET
  2
2
 10
22250.00
 20
27000.00
  0
INSERT
  8
SHEET
  2
__JUNCTIONS__
 10
22250.00
 20
27000.00
  0
INSERT
  8
SHEET
  2
2
 10
22250.00
 20
27500.00
  0
INSERT
  8
SHEET
  2
__JUNCTIONS__
 10
22250.00
 20
27500.00
  0
POLYLINE
  8
SHEET
 66
     1
 10
0.00
 20
0.00
 40
0.00
 41
0.00
  0
VERTEX
  8
SHEET
 10
22250.00
 20
27500.00
 40
0.00
 41
0.00
  0
VERTEX
  8
SHEET
 10
22250.00
 20
27400.00
  0
VERTEX
  8
SHEET
 10
22250.00
 20
27400.00
 40
0.00
 41
0.00
  0
VERTEX
  8
SHEET
 10
22200.00
 20
27375.00
  0
VERTEX
  8
SHEET
 10
22200.00
 20
27375.00
 40
0.00
 41
0.00
  0
VERTEX
  8
SHEET
 10
22300.00
 20
27325.00
  0
VERTEX
  8
SHEET
 10
22300.00
 20
27325.00
 40
0.00
 41
0.00
  0
VERTEX
  8
SHEET
 10
22200.00
 20
27275.00
  0
VERTEX
  8
SHEET
 10
22200.00
 20
27275.00
 40
0.00
 41
0.00
  0
VERTEX
  8
SHEET
 10
22300.00
 20
27225.00
  0
VERTEX
  8
SHEET
 10
22300.00
 20
27225.00
 40
0.00
 41
0.00
  0
VERTEX
  8
SHEET
 10
22200.00
 20
27175.00
  0
VERTEX
  8
SHEET
 10
22200.00
 20
27175.00
 40
0.00
 41
0.00
  0
VERTEX
  8
SHEET
 10
22300.00
 20
27125.00
  0
VERTEX
  8
SHEET
 10
22300.00
 20
27125.00
 40
0.00
 41
0.00
  0
VERTEX
  8
SHEET
 10
22250.00
 20
27100.00
  0
VERTEX
  8
SHEET
 10
22250.00
 20
27100.00
 40
0.00
 41
0.00
  0
VERTEX
  8
SHEET
 10
22250.00
 20
27000.00
 40
0.00
 41
0.00
  0
VERTEX
  8
SHEET
 10
22250.00
 20
27000.00
  0
SEQEND
  8
SHEET
  0
TEXT
  8
SHEET
 62
     5
 10
22375.00
 20
27175.00
 40
50.00
  1
R32
 50
90.000
  0
TEXT
  8
SHEET
 62
     5
 10
22435.00
 20
27175.00
 40
50.00
  1
1M
 50
90.000
  0
INSERT
  8
SHEET
  2
2
 10
22250.00
 20
26950.00
 50
270.000
  0
TEXT
  8
SHEET
 62
    145
 10
22175.00
 20
26875.00
 40
50.00
  1
1
 72
     2
 11
22225.00
 21
26875.00
  0
POLYLINE
  8
SHEET
 66
     1
 10
0.00
 20
0.00
 40
0.00
 41
0.00
  0
VERTEX
  8
SHEET
 10
22250.00
 20
26950.00
 40
0.00
 41
0.00
  0
VERTEX
  8
SHEET
 10
22250.00
 20
26800.00
 40
0.00
 41
0.00
  0
VERTEX
  8
SHEET
 10
22250.00
 20
26800.00
  0
SEQEND
  8
SHEET
  0
POLYLINE
  8
SHEET
 66
     1
 10
0.00
 20
0.00
 40
0.00
 41
0.00
  0
VERTEX
  8
SHEET
 10
22175.00
 20
26750.00
 40
0.00
 41
0.00
  0
VERTEX
  8
SHEET
 10
22200.00
 20
26800.00
  0
VERTEX
  8
SHEET
 10
22200.00
 20
26800.00
 40
0.00
 41
0.00
  0
VERTEX
  8
SHEET
 10
22300.00
 20
26800.00
  0
VERTEX
  8
SHEET
 10
22300.00
 20
26800.00
 40
0.00
 41
0.00
  0
VERTEX
  8
SHEET
 10
22275.00
 20
26750.00
 40
0.00
 41
0.00
  0
VERTEX
  8
SHEET
 10
22275.00
 20
26750.00
  0
SEQEND
  8
SHEET
  0
POLYLINE
  8
SHEET
 66
     1
 10
0.00
 20
0.00
 40
0.00
 41
0.00
  0
VERTEX
  8
SHEET
 10
22225.00
 20
26800.00
 40
0.00
 41
0.00
  0
VERTEX
  8
SHEET
 10
22200.00
 20
26750.00
 40
0.00
 41
0.00
  0
VERTEX
  8
SHEET
 10
22200.00
 20
26750.00
  0
SEQEND
  8
SHEET
  0
POLYLINE
  8
SHEET
 66
     1
 10
0.00
 20
0.00
 40
0.00
 41
0.00
  0
VERTEX
  8
SHEET
 10
22250.00
 20
26800.00
 40
0.00
 41
0.00
  0
VERTEX
  8
SHEET
 10
22225.00
 20
26750.00
 40
0.00
 41
0.00
  0
VERTEX
  8
SHEET
 10
22225.00
 20
26750.00
  0
SEQEND
  8
SHEET
  0
POLYLINE
  8
SHEET
 66
     1
 10
0.00
 20
0.00
 40
0.00
 41
0.00
  0
VERTEX
  8
SHEET
 10
22275.00
 20
26800.00
 40
0.00
 41
0.00
  0
VERTEX
  8
SHEET
 10
22250.00
 20
26750.00
 40
0.00
 41
0.00
  0
VERTEX
  8
SHEET
 10
22250.00
 20
26750.00
  0
SEQEND
  8
SHEET
  0
TEXT
  8
SHEET
 62
     5
 10
22200.00
 20
26675.00
 40
50.00
  1
TP21
  0
INSERT
  8
SHEET
  2
2
 10
22600.00
 20
24850.00
 50
270.000
  0
INSERT
  8
SHEET
  2
2
 10
23100.00
 20
24850.00
 50
270.000
  0
POLYLINE
  8
SHEET
 66
     1
 10
0.00
 20
0.00
 40
0.00
 41
0.00
  0
VERTEX
  8
SHEET
 10
23100.00
 20
24850.00
 40
0.00
 41
0.00
  0
VERTEX
  8
SHEET
 10
23000.00
 20
24850.00
  0
VERTEX
  8
SHEET
 10
23000.00
 20
24850.00
 40
0.00
 41
0.00
  0
VERTEX
  8
SHEET
 10
22975.00
 20
24900.00
  0
VERTEX
  8
SHEET
 10
22975.00
 20
24900.00
 40
0.00
 41
0.00
  0
VERTEX
  8
SHEET
 10
22925.00
 20
24800.00
  0
VERTEX
  8
SHEET
 10
22925.00
 20
24800.00
 40
0.00
 41
0.00
  0
VERTEX
  8
SHEET
 10
22875.00
 20
24900.00
  0
VERTEX
  8
SHEET
 10
22875.00
 20
24900.00
 40
0.00
 41
0.00
  0
VERTEX
  8
SHEET
 10
22825.00
 20
24800.00
  0
VERTEX
  8
SHEET
 10
22825.00
 20
24800.00
 40
0.00
 41
0.00
  0
VERTEX
  8
SHEET
 10
22775.00
 20
24900.00
  0
VERTEX
  8
SHEET
 10
22775.00
 20
24900.00
 40
0.00
 41
0.00
  0
VERTEX
  8
SHEET
 10
22725.00
 20
24800.00
  0
VERTEX
  8
SHEET
 10
22725.00
 20
24800.00
 40
0.00
 41
0.00
  0
VERTEX
  8
SHEET
 10
22700.00
 20
24850.00
  0
VERTEX
  8
SHEET
 10
22700.00
 20
24850.00
 40
0.00
 41
0.00
  0
VERTEX
  8
SHEET
 10
22600.00
 20
24850.00
 40
0.00
 41
0.00
  0
VERTEX
  8
SHEET
 10
22600.00
 20
24850.00
  0
SEQEND
  8
SHEET
  0
TEXT
  8
SHEET
 62
     5
 10
22775.00
 20
24725.00
 40
50.00
  1
R33
  0
TEXT
  8
SHEET
 62
     5
 10
22775.00
 20
24665.00
 40
50.00
  1
10K
  0
INSERT
  8
SHEET
  2
2
 10
22650.00
 20
22700.00
 50
270.000
  0
INSERT
  8
SHEET
  2
2
 10
23150.00
 20
22700.00
 50
270.000
  0
POLYLINE
  8
SHEET
 66
     1
 10
0.00
 20
0.00
 40
0.00
 41
0.00
  0
VERTEX
  8
SHEET
 10
23150.00
 20
22700.00
 40
0.00
 41
0.00
  0
VERTEX
  8
SHEET
 10
23050.00
 20
22700.00
  0
VERTEX
  8
SHEET
 10
23050.00
 20
22700.00
 40
0.00
 41
0.00
  0
VERTEX
  8
SHEET
 10
23025.00
 20
22750.00
  0
VERTEX
  8
SHEET
 10
23025.00
 20
22750.00
 40
0.00
 41
0.00
  0
VERTEX
  8
SHEET
 10
22975.00
 20
22650.00
  0
VERTEX
  8
SHEET
 10
22975.00
 20
22650.00
 40
0.00
 41
0.00
  0
VERTEX
  8
SHEET
 10
22925.00
 20
22750.00
  0
VERTEX
  8
SHEET
 10
22925.00
 20
22750.00
 40
0.00
 41
0.00
  0
VERTEX
  8
SHEET
 10
22875.00
 20
22650.00
  0
VERTEX
  8
SHEET
 10
22875.00
 20
22650.00
 40
0.00
 41
0.00
  0
VERTEX
  8
SHEET
 10
22825.00
 20
22750.00
  0
VERTEX
  8
SHEET
 10
22825.00
 20
22750.00
 40
0.00
 41
0.00
  0
VERTEX
  8
SHEET
 10
22775.00
 20
22650.00
  0
VERTEX
  8
SHEET
 10
22775.00
 20
22650.00
 40
0.00
 41
0.00
  0
VERTEX
  8
SHEET
 10
22750.00
 20
22700.00
  0
VERTEX
  8
SHEET
 10
22750.00
 20
22700.00
 40
0.00
 41
0.00
  0
VERTEX
  8
SHEET
 10
22650.00
 20
22700.00
 40
0.00
 41
0.00
  0
VERTEX
  8
SHEET
 10
22650.00
 20
22700.00
  0
SEQEND
  8
SHEET
  0
TEXT
  8
SHEET
 62
     5
 10
22825.00
 20
22575.00
 40
50.00
  1
R34
  0
TEXT
  8
SHEET
 62
     5
 10
22825.00
 20
22515.00
 40
50.00
  1
10K
  0
INSERT
  8
SHEET
  2
2
 10
19700.00
 20
24750.00
  0
INSERT
  8
SHEET
  2
2
 10
19700.00
 20
25250.00
  0
POLYLINE
  8
SHEET
 66
     1
 10
0.00
 20
0.00
 40
0.00
 41
0.00
  0
VERTEX
  8
SHEET
 10
19700.00
 20
25250.00
 40
0.00
 41
0.00
  0
VERTEX
  8
SHEET
 10
19700.00
 20
25150.00
  0
VERTEX
  8
SHEET
 10
19700.00
 20
25150.00
 40
0.00
 41
0.00
  0
VERTEX
  8
SHEET
 10
19650.00
 20
25125.00
  0
VERTEX
  8
SHEET
 10
19650.00
 20
25125.00
 40
0.00
 41
0.00
  0
VERTEX
  8
SHEET
 10
19750.00
 20
25075.00
  0
VERTEX
  8
SHEET
 10
19750.00
 20
25075.00
 40
0.00
 41
0.00
  0
VERTEX
  8
SHEET
 10
19650.00
 20
25025.00
  0
VERTEX
  8
SHEET
 10
19650.00
 20
25025.00
 40
0.00
 41
0.00
  0
VERTEX
  8
SHEET
 10
19750.00
 20
24975.00
  0
VERTEX
  8
SHEET
 10
19750.00
 20
24975.00
 40
0.00
 41
0.00
  0
VERTEX
  8
SHEET
 10
19650.00
 20
24925.00
  0
VERTEX
  8
SHEET
 10
19650.00
 20
24925.00
 40
0.00
 41
0.00
  0
VERTEX
  8
SHEET
 10
19750.00
 20
24875.00
  0
VERTEX
  8
SHEET
 10
19750.00
 20
24875.00
 40
0.00
 41
0.00
  0
VERTEX
  8
SHEET
 10
19700.00
 20
24850.00
  0
VERTEX
  8
SHEET
 10
19700.00
 20
24850.00
 40
0.00
 41
0.00
  0
VERTEX
  8
SHEET
 10
19700.00
 20
24750.00
 40
0.00
 41
0.00
  0
VERTEX
  8
SHEET
 10
19700.00
 20
24750.00
  0
SEQEND
  8
SHEET
  0
TEXT
  8
SHEET
 62
     5
 10
19825.00
 20
24925.00
 40
50.00
  1
R35
 50
90.000
  0
TEXT
  8
SHEET
 62
     5
 10
19885.00
 20
24925.00
 40
50.00
  1
4M  4W
 50
90.000
  0
TEXT
  8
SHEET
 62
     5
 10
19945.00
 20
24925.00
 40
50.00
  1
HV TYPE
 50
90.000
  0
INSERT
  8
SHEET
  2
2
 10
19650.00
 20
22800.00
  0
INSERT
  8
SHEET
  2
2
 10
19650.00
 20
23300.00
  0
POLYLINE
  8
SHEET
 66
     1
 10
0.00
 20
0.00
 40
0.00
 41
0.00
  0
VERTEX
  8
SHEET
 10
19650.00
 20
23300.00
 40
0.00
 41
0.00
  0
VERTEX
  8
SHEET
 10
19650.00
 20
23200.00
  0
VERTEX
  8
SHEET
 10
19650.00
 20
23200.00
 40
0.00
 41
0.00
  0
VERTEX
  8
SHEET
 10
19600.00
 20
23175.00
  0
VERTEX
  8
SHEET
 10
19600.00
 20
23175.00
 40
0.00
 41
0.00
  0
VERTEX
  8
SHEET
 10
19700.00
 20
23125.00
  0
VERTEX
  8
SHEET
 10
19700.00
 20
23125.00
 40
0.00
 41
0.00
  0
VERTEX
  8
SHEET
 10
19600.00
 20
23075.00
  0
VERTEX
  8
SHEET
 10
19600.00
 20
23075.00
 40
0.00
 41
0.00
  0
VERTEX
  8
SHEET
 10
19700.00
 20
23025.00
  0
VERTEX
  8
SHEET
 10
19700.00
 20
23025.00
 40
0.00
 41
0.00
  0
VERTEX
  8
SHEET
 10
19600.00
 20
22975.00
  0
VERTEX
  8
SHEET
 10
19600.00
 20
22975.00
 40
0.00
 41
0.00
  0
VERTEX
  8
SHEET
 10
19700.00
 20
22925.00
  0
VERTEX
  8
SHEET
 10
19700.00
 20
22925.00
 40
0.00
 41
0.00
  0
VERTEX
  8
SHEET
 10
19650.00
 20
22900.00
  0
VERTEX
  8
SHEET
 10
19650.00
 20
22900.00
 40
0.00
 41
0.00
  0
VERTEX
  8
SHEET
 10
19650.00
 20
22800.00
 40
0.00
 41
0.00
  0
VERTEX
  8
SHEET
 10
19650.00
 20
22800.00
  0
SEQEND
  8
SHEET
  0
TEXT
  8
SHEET
 62
     5
 10
19450.00
 20
22900.00
 40
50.00
  1
R36
 50
90.000
  0
TEXT
  8
SHEET
 62
     5
 10
19510.00
 20
22900.00
 40
50.00
  1
4M  4W
 50
90.000
  0
TEXT
  8
SHEET
 62
     5
 10
19570.00
 20
22900.00
 40
50.00
  1
HV TYPE
 50
90.000
  0
INSERT
  8
SHEET
  2
2
 10
21400.00
 20
20250.00
 50
270.000
  0
INSERT
  8
SHEET
  2
__JUNCTIONS__
 10
21400.00
 20
20250.00
 50
270.000
  0
TEXT
  8
SHEET
 62
    54
 10
21425.00
 20
20150.00
 40
50.00
  1
C
  0
TEXT
  8
SHEET
 62
    145
 10
21425.00
 20
20300.00
 40
50.00
  1
2
  0
INSERT
  8
SHEET
  2
2
 10
21800.00
 20
20450.00
 50
270.000
  0
TEXT
  8
SHEET
 62
    54
 10
21725.00
 20
20275.00
 40
50.00
  1
NC
  0
TEXT
  8
SHEET
 62
    145
 10
21700.00
 20
20375.00
 40
50.00
  1
1
 72
     2
 11
21750.00
 21
20375.00
  0
INSERT
  8
SHEET
  2
2
 10
21800.00
 20
20050.00
 50
270.000
  0
TEXT
  8
SHEET
 62
    54
 10
21725.00
 20
20150.00
 40
50.00
  1
NO
  0
TEXT
  8
SHEET
 62
    145
 10
21700.00
 20
20075.00
 40
50.00
  1
3
 72
     2
 11
21750.00
 21
20075.00
  0
POLYLINE
  8
SHEET
 66
     1
 10
0.00
 20
0.00
 40
0.00
 41
0.00
  0
VERTEX
  8
SHEET
 10
21800.00
 20
20425.00
 40
0.00
 41
0.00
 42
0.414
  0
VERTEX
  8
SHEET
 10
21775.00
 20
20400.00
  0
VERTEX
  8
SHEET
 10
21775.00
 20
20400.00
 40
0.00
 41
0.00
 42
0.414
  0
VERTEX
  8
SHEET
 10
21800.00
 20
20375.00
  0
VERTEX
  8
SHEET
 10
21800.00
 20
20375.00
 40
0.00
 41
0.00
 42
0.414
  0
VERTEX
  8
SHEET
 10
21825.00
 20
20400.00
  0
VERTEX
  8
SHEET
 10
21825.00
 20
20400.00
 40
0.00
 41
0.00
 42
0.414
  0
VERTEX
  8
SHEET
 10
21800.00
 20
20425.00
  0
VERTEX
  8
SHEET
 10
21800.00
 20
20425.00
 40
0.00
 41
0.00
  0
VERTEX
  8
SHEET
 10
21800.00
 20
20450.00
 40
0.00
 41
0.00
  0
VERTEX
  8
SHEET
 10
21800.00
 20
20450.00
  0
SEQEND
  8
SHEET
  0
POLYLINE
  8
SHEET
 66
     1
 10
0.00
 20
0.00
 40
0.00
 41
0.00
  0
VERTEX
  8
SHEET
 10
21800.00
 20
20075.00
 40
0.00
 41
0.00
 42
0.414
  0
VERTEX
  8
SHEET
 10
21825.00
 20
20100.00
  0
VERTEX
  8
SHEET
 10
21825.00
 20
20100.00
 40
0.00
 41
0.00
 42
0.414
  0
VERTEX
  8
SHEET
 10
21800.00
 20
20125.00
  0
VERTEX
  8
SHEET
 10
21800.00
 20
20125.00
 40
0.00
 41
0.00
 42
0.414
  0
VERTEX
  8
SHEET
 10
21775.00
 20
20100.00
  0
VERTEX
  8
SHEET
 10
21775.00
 20
20100.00
 40
0.00
 41
0.00
 42
0.414
  0
VERTEX
  8
SHEET
 10
21800.00
 20
20075.00
  0
VERTEX
  8
SHEET
 10
21800.00
 20
20075.00
 40
0.00
 41
0.00
  0
VERTEX
  8
SHEET
 10
21800.00
 20
20050.00
 40
0.00
 41
0.00
  0
VERTEX
  8
SHEET
 10
21800.00
 20
20050.00
  0
SEQEND
  8
SHEET
  0
POLYLINE
  8
SHEET
 66
     1
 10
0.00
 20
0.00
 40
0.00
 41
0.00
  0
VERTEX
  8
SHEET
 10
21425.00
 20
20250.00
 40
0.00
 41
0.00
 42
0.414
  0
VERTEX
  8
SHEET
 10
21450.00
 20
20225.00
  0
VERTEX
  8
SHEET
 10
21450.00
 20
20225.00
 40
0.00
 41
0.00
 42
0.414
  0
VERTEX
  8
SHEET
 10
21475.00
 20
20250.00
  0
VERTEX
  8
SHEET
 10
21475.00
 20
20250.00
 40
0.00
 41
0.00
 42
0.414
  0
VERTEX
  8
SHEET
 10
21450.00
 20
20275.00
  0
VERTEX
  8
SHEET
 10
21450.00
 20
20275.00
 40
0.00
 41
0.00
 42
0.414
  0
VERTEX
  8
SHEET
 10
21425.00
 20
20250.00
  0
VERTEX
  8
SHEET
 10
21425.00
 20
20250.00
 40
0.00
 41
0.00
  0
VERTEX
  8
SHEET
 10
21400.00
 20
20250.00
 40
0.00
 41
0.00
  0
VERTEX
  8
SHEET
 10
21400.00
 20
20250.00
  0
SEQEND
  8
SHEET
  0
POLYLINE
  8
SHEET
 66
     1
 10
0.00
 20
0.00
 40
0.00
 41
0.00
  0
VERTEX
  8
SHEET
 10
21800.00
 20
20400.00
 40
0.00
 41
0.00
  0
VERTEX
  8
SHEET
 10
21799.00
 20
20400.00
 40
0.00
 41
0.00
  0
VERTEX
  8
SHEET
 10
21799.00
 20
20400.00
  0
SEQEND
  8
SHEET
  0
POLYLINE
  8
SHEET
 66
     1
 10
0.00
 20
0.00
 40
0.00
 41
0.00
  0
VERTEX
  8
SHEET
 10
21473.00
 20
20258.00
 40
0.00
 41
0.00
  0
VERTEX
  8
SHEET
 10
21850.00
 20
20390.00
 40
0.00
 41
0.00
  0
VERTEX
  8
SHEET
 10
21850.00
 20
20390.00
  0
SEQEND
  8
SHEET
  0
TEXT
  8
SHEET
 62
     5
 10
21475.00
 20
20075.00
 40
50.00
  1
DIP1b
  0
TEXT
  8
SHEET
 62
     5
 10
21475.00
 20
20015.00
 40
50.00
  1
SPDT
  0
INSERT
  8
SHEET
  2
2
 10
21350.00
 20
21050.00
 50
270.000
  0
INSERT
  8
SHEET
  2
2
 10
21750.00
 20
21250.00
 50
270.000
  0
INSERT
  8
SHEET
  2
2
 10
21750.00
 20
20850.00
 50
270.000
  0
POLYLINE
  8
SHEET
 66
     1
 10
0.00
 20
0.00
 40
0.00
 41
0.00
  0
VERTEX
  8
SHEET
 10
21750.00
 20
21225.00
 40
0.00
 41
0.00
 42
0.414
  0
VERTEX
  8
SHEET
 10
21725.00
 20
21200.00
  0
VERTEX
  8
SHEET
 10
21725.00
 20
21200.00
 40
0.00
 41
0.00
 42
0.414
  0
VERTEX
  8
SHEET
 10
21750.00
 20
21175.00
  0
VERTEX
  8
SHEET
 10
21750.00
 20
21175.00
 40
0.00
 41
0.00
 42
0.414
  0
VERTEX
  8
SHEET
 10
21775.00
 20
21200.00
  0
VERTEX
  8
SHEET
 10
21775.00
 20
21200.00
 40
0.00
 41
0.00
 42
0.414
  0
VERTEX
  8
SHEET
 10
21750.00
 20
21225.00
  0
VERTEX
  8
SHEET
 10
21750.00
 20
21225.00
 40
0.00
 41
0.00
  0
VERTEX
  8
SHEET
 10
21750.00
 20
21250.00
 40
0.00
 41
0.00
  0
VERTEX
  8
SHEET
 10
21750.00
 20
21250.00
  0
SEQEND
  8
SHEET
  0
POLYLINE
  8
SHEET
 66
     1
 10
0.00
 20
0.00
 40
0.00
 41
0.00
  0
VERTEX
  8
SHEET
 10
21750.00
 20
20875.00
 40
0.00
 41
0.00
 42
0.414
  0
VERTEX
  8
SHEET
 10
21775.00
 20
20900.00
  0
VERTEX
  8
SHEET
 10
21775.00
 20
20900.00
 40
0.00
 41
0.00
 42
0.414
  0
VERTEX
  8
SHEET
 10
21750.00
 20
20925.00
  0
VERTEX
  8
SHEET
 10
21750.00
 20
20925.00
 40
0.00
 41
0.00
 42
0.414
  0
VERTEX
  8
SHEET
 10
21725.00
 20
20900.00
  0
VERTEX
  8
SHEET
 10
21725.00
 20
20900.00
 40
0.00
 41
0.00
 42
0.414
  0
VERTEX
  8
SHEET
 10
21750.00
 20
20875.00
  0
VERTEX
  8
SHEET
 10
21750.00
 20
20875.00
 40
0.00
 41
0.00
  0
VERTEX
  8
SHEET
 10
21750.00
 20
20850.00
 40
0.00
 41
0.00
  0
VERTEX
  8
SHEET
 10
21750.00
 20
20850.00
  0
SEQEND
  8
SHEET
  0
POLYLINE
  8
SHEET
 66
     1
 10
0.00
 20
0.00
 40
0.00
 41
0.00
  0
VERTEX
  8
SHEET
 10
21375.00
 20
21050.00
 40
0.00
 41
0.00
 42
0.414
  0
VERTEX
  8
SHEET
 10
21400.00
 20
21025.00
  0
VERTEX
  8
SHEET
 10
21400.00
 20
21025.00
 40
0.00
 41
0.00
 42
0.414
  0
VERTEX
  8
SHEET
 10
21425.00
 20
21050.00
  0
VERTEX
  8
SHEET
 10
21425.00
 20
21050.00
 40
0.00
 41
0.00
 42
0.414
  0
VERTEX
  8
SHEET
 10
21400.00
 20
21075.00
  0
VERTEX
  8
SHEET
 10
21400.00
 20
21075.00
 40
0.00
 41
0.00
 42
0.414
  0
VERTEX
  8
SHEET
 10
21375.00
 20
21050.00
  0
VERTEX
  8
SHEET
 10
21375.00
 20
21050.00
 40
0.00
 41
0.00
  0
VERTEX
  8
SHEET
 10
21350.00
 20
21050.00
 40
0.00
 41
0.00
  0
VERTEX
  8
SHEET
 10
21350.00
 20
21050.00
  0
SEQEND
  8
SHEET
  0
POLYLINE
  8
SHEET
 66
     1
 10
0.00
 20
0.00
 40
0.00
 41
0.00
  0
VERTEX
  8
SHEET
 10
21750.00
 20
21200.00
 40
0.00
 41
0.00
  0
VERTEX
  8
SHEET
 10
21749.00
 20
21200.00
 40
0.00
 41
0.00
  0
VERTEX
  8
SHEET
 10
21749.00
 20
21200.00
  0
SEQEND
  8
SHEET
  0
POLYLINE
  8
SHEET
 66
     1
 10
0.00
 20
0.00
 40
0.00
 41
0.00
  0
VERTEX
  8
SHEET
 10
21423.00
 20
21058.00
 40
0.00
 41
0.00
  0
VERTEX
  8
SHEET
 10
21800.00
 20
21190.00
 40
0.00
 41
0.00
  0
VERTEX
  8
SHEET
 10
21800.00
 20
21190.00
  0
SEQEND
  8
SHEET
  0
TEXT
  8
SHEET
 62
     5
 10
21425.00
 20
20875.00
 40
50.00
  1
DIP1a
  0
TEXT
  8
SHEET
 62
     5
 10
21425.00
 20
20815.00
 40
50.00
  1
SPDT
  0
INSERT
  8
SHEET
  2
TERMINAL
 10
16450.00
 20
20750.00
  0
TEXT
  8
SHEET
 62
    145
 10
16480.00
 20
20720.00
 40
50.00
  1
1
  0
INSERT
  8
SHEET
  2
TERMINAL
 10
16850.00
 20
20750.00
  0
TEXT
  8
SHEET
 62
    145
 10
16880.00
 20
20720.00
 40
50.00
  1
2
  0
POLYLINE
  8
SHEET
 66
     1
 10
0.00
 20
0.00
 70
     1
 40
0.00
 41
0.00
  0
VERTEX
  8
SHEET
 10
16650.00
 20
20850.00
 40
0.00
 41
0.00
 42
1.000
  0
VERTEX
  8
SHEET
 10
16650.00
 20
20650.00
  0
VERTEX
  8
SHEET
 10
16650.00
 20
20650.00
 40
0.00
 41
0.00
 42
1.000
  0
VERTEX
  8
SHEET
 10
16650.00
 20
20850.00
 40
0.00
 41
0.00
  0
VERTEX
  8
SHEET
 10
16650.00
 20
20850.00
  0
SEQEND
  8
SHEET
  0
POLYLINE
  8
SHEET
 66
     1
 10
0.00
 20
0.00
 40
0.00
 41
0.00
  0
VERTEX
  8
SHEET
 10
16600.00
 20
20800.00
 40
0.00
 41
0.00
  0
VERTEX
  8
SHEET
 10
16600.00
 20
20700.00
 40
0.00
 41
0.00
  0
VERTEX
  8
SHEET
 10
16600.00
 20
20700.00
  0
SEQEND
  8
SHEET
  0
POLYLINE
  8
SHEET
 66
     1
 10
0.00
 20
0.00
 40
0.00
 41
0.00
  0
VERTEX
  8
SHEET
 10
16700.00
 20
20800.00
 40
0.00
 41
0.00
  0
VERTEX
  8
SHEET
 10
16700.00
 20
20700.00
 40
0.00
 41
0.00
  0
VERTEX
  8
SHEET
 10
16700.00
 20
20700.00
  0
SEQEND
  8
SHEET
  0
POLYLINE
  8
SHEET
 66
     1
 10
0.00
 20
0.00
 40
0.00
 41
0.00
  0
VERTEX
  8
SHEET
 10
16600.00
 20
20750.00
 40
0.00
 41
0.00
  0
VERTEX
  8
SHEET
 10
16450.00
 20
20750.00
 40
0.00
 41
0.00
  0
VERTEX
  8
SHEET
 10
16450.00
 20
20750.00
  0
SEQEND
  8
SHEET
  0
POLYLINE
  8
SHEET
 66
     1
 10
0.00
 20
0.00
 40
0.00
 41
0.00
  0
VERTEX
  8
SHEET
 10
16700.00
 20
20750.00
 40
0.00
 41
0.00
  0
VERTEX
  8
SHEET
 10
16850.00
 20
20750.00
 40
0.00
 41
0.00
  0
VERTEX
  8
SHEET
 10
16850.00
 20
20750.00
  0
SEQEND
  8
SHEET
  0
TEXT
  8
SHEET
 62
     5
 10
16650.00
 20
20600.00
 40
50.00
  1
L3
  0
TEXT
  8
SHEET
 62
     5
 10
16650.00
 20
20540.00
 40
50.00
  1
neon
  0
TEXT
  8
SHEET
 62
     5
 10
16650.00
 20
20480.00
 40
50.00
  1
DSC
  0
TEXT
  8
SHEET
 62
     5
 10
16650.00
 20
20420.00
 40
50.00
  1
NE-2
  0
INSERT
  8
SHEET
  2
2
 10
17050.00
 20
20900.00
  0
INSERT
  8
SHEET
  2
2
 10
17050.00
 20
21400.00
  0
POLYLINE
  8
SHEET
 66
     1
 10
0.00
 20
0.00
 40
0.00
 41
0.00
  0
VERTEX
  8
SHEET
 10
17050.00
 20
21400.00
 40
0.00
 41
0.00
  0
VERTEX
  8
SHEET
 10
17050.00
 20
21300.00
  0
VERTEX
  8
SHEET
 10
17050.00
 20
21300.00
 40
0.00
 41
0.00
  0
VERTEX
  8
SHEET
 10
17000.00
 20
21275.00
  0
VERTEX
  8
SHEET
 10
17000.00
 20
21275.00
 40
0.00
 41
0.00
  0
VERTEX
  8
SHEET
 10
17100.00
 20
21225.00
  0
VERTEX
  8
SHEET
 10
17100.00
 20
21225.00
 40
0.00
 41
0.00
  0
VERTEX
  8
SHEET
 10
17000.00
 20
21175.00
  0
VERTEX
  8
SHEET
 10
17000.00
 20
21175.00
 40
0.00
 41
0.00
  0
VERTEX
  8
SHEET
 10
17100.00
 20
21125.00
  0
VERTEX
  8
SHEET
 10
17100.00
 20
21125.00
 40
0.00
 41
0.00
  0
VERTEX
  8
SHEET
 10
17000.00
 20
21075.00
  0
VERTEX
  8
SHEET
 10
17000.00
 20
21075.00
 40
0.00
 41
0.00
  0
VERTEX
  8
SHEET
 10
17100.00
 20
21025.00
  0
VERTEX
  8
SHEET
 10
17100.00
 20
21025.00
 40
0.00
 41
0.00
  0
VERTEX
  8
SHEET
 10
17050.00
 20
21000.00
  0
VERTEX
  8
SHEET
 10
17050.00
 20
21000.00
 40
0.00
 41
0.00
  0
VERTEX
  8
SHEET
 10
17050.00
 20
20900.00
 40
0.00
 41
0.00
  0
VERTEX
  8
SHEET
 10
17050.00
 20
20900.00
  0
SEQEND
  8
SHEET
  0
TEXT
  8
SHEET
 62
     5
 10
17175.00
 20
21075.00
 40
50.00
  1
R20
 50
90.000
  0
TEXT
  8
SHEET
 62
     5
 10
17235.00
 20
21075.00
 40
50.00
  1
100K
 50
90.000
  0
INSERT
  8
SHEET
  2
2
 10
16350.00
 20
22000.00
 50
270.000
  0
TEXT
  8
SHEET
 62
    54
 10
16375.00
 20
21900.00
 40
50.00
  1
C
  0
TEXT
  8
SHEET
 62
    145
 10
16375.00
 20
22050.00
 40
50.00
  1
2
  0
INSERT
  8
SHEET
  2
2
 10
16750.00
 20
22200.00
 50
270.000
  0
TEXT
  8
SHEET
 62
    54
 10
16675.00
 20
22025.00
 40
50.00
  1
NC
  0
TEXT
  8
SHEET
 62
    145
 10
16650.00
 20
22125.00
 40
50.00
  1
1
 72
     2
 11
16700.00
 21
22125.00
  0
INSERT
  8
SHEET
  2
2
 10
16750.00
 20
21800.00
 50
270.000
  0
TEXT
  8
SHEET
 62
    54
 10
16675.00
 20
21900.00
 40
50.00
  1
NO
  0
TEXT
  8
SHEET
 62
    145
 10
16650.00
 20
21825.00
 40
50.00
  1
3
 72
     2
 11
16700.00
 21
21825.00
  0
POLYLINE
  8
SHEET
 66
     1
 10
0.00
 20
0.00
 40
0.00
 41
0.00
  0
VERTEX
  8
SHEET
 10
16750.00
 20
22175.00
 40
0.00
 41
0.00
 42
0.414
  0
VERTEX
  8
SHEET
 10
16725.00
 20
22150.00
  0
VERTEX
  8
SHEET
 10
16725.00
 20
22150.00
 40
0.00
 41
0.00
 42
0.414
  0
VERTEX
  8
SHEET
 10
16750.00
 20
22125.00
  0
VERTEX
  8
SHEET
 10
16750.00
 20
22125.00
 40
0.00
 41
0.00
 42
0.414
  0
VERTEX
  8
SHEET
 10
16775.00
 20
22150.00
  0
VERTEX
  8
SHEET
 10
16775.00
 20
22150.00
 40
0.00
 41
0.00
 42
0.414
  0
VERTEX
  8
SHEET
 10
16750.00
 20
22175.00
  0
VERTEX
  8
SHEET
 10
16750.00
 20
22175.00
 40
0.00
 41
0.00
  0
VERTEX
  8
SHEET
 10
16750.00
 20
22200.00
 40
0.00
 41
0.00
  0
VERTEX
  8
SHEET
 10
16750.00
 20
22200.00
  0
SEQEND
  8
SHEET
  0
POLYLINE
  8
SHEET
 66
     1
 10
0.00
 20
0.00
 40
0.00
 41
0.00
  0
VERTEX
  8
SHEET
 10
16750.00
 20
21825.00
 40
0.00
 41
0.00
 42
0.414
  0
VERTEX
  8
SHEET
 10
16775.00
 20
21850.00
  0
VERTEX
  8
SHEET
 10
16775.00
 20
21850.00
 40
0.00
 41
0.00
 42
0.414
  0
VERTEX
  8
SHEET
 10
16750.00
 20
21875.00
  0
VERTEX
  8
SHEET
 10
16750.00
 20
21875.00
 40
0.00
 41
0.00
 42
0.414
  0
VERTEX
  8
SHEET
 10
16725.00
 20
21850.00
  0
VERTEX
  8
SHEET
 10
16725.00
 20
21850.00
 40
0.00
 41
0.00
 42
0.414
  0
VERTEX
  8
SHEET
 10
16750.00
 20
21825.00
  0
VERTEX
  8
SHEET
 10
16750.00
 20
21825.00
 40
0.00
 41
0.00
  0
VERTEX
  8
SHEET
 10
16750.00
 20
21800.00
 40
0.00
 41
0.00
  0
VERTEX
  8
SHEET
 10
16750.00
 20
21800.00
  0
SEQEND
  8
SHEET
  0
POLYLINE
  8
SHEET
 66
     1
 10
0.00
 20
0.00
 40
0.00
 41
0.00
  0
VERTEX
  8
SHEET
 10
16375.00
 20
22000.00
 40
0.00
 41
0.00
 42
0.414
  0
VERTEX
  8
SHEET
 10
16400.00
 20
21975.00
  0
VERTEX
  8
SHEET
 10
16400.00
 20
21975.00
 40
0.00
 41
0.00
 42
0.414
  0
VERTEX
  8
SHEET
 10
16425.00
 20
22000.00
  0
VERTEX
  8
SHEET
 10
16425.00
 20
22000.00
 40
0.00
 41
0.00
 42
0.414
  0
VERTEX
  8
SHEET
 10
16400.00
 20
22025.00
  0
VERTEX
  8
SHEET
 10
16400.00
 20
22025.00
 40
0.00
 41
0.00
 42
0.414
  0
VERTEX
  8
SHEET
 10
16375.00
 20
22000.00
  0
VERTEX
  8
SHEET
 10
16375.00
 20
22000.00
 40
0.00
 41
0.00
  0
VERTEX
  8
SHEET
 10
16350.00
 20
22000.00
 40
0.00
 41
0.00
  0
VERTEX
  8
SHEET
 10
16350.00
 20
22000.00
  0
SEQEND
  8
SHEET
  0
POLYLINE
  8
SHEET
 66
     1
 10
0.00
 20
0.00
 40
0.00
 41
0.00
  0
VERTEX
  8
SHEET
 10
16750.00
 20
22150.00
 40
0.00
 41
0.00
  0
VERTEX
  8
SHEET
 10
16749.00
 20
22150.00
 40
0.00
 41
0.00
  0
VERTEX
  8
SHEET
 10
16749.00
 20
22150.00
  0
SEQEND
  8
SHEET
  0
POLYLINE
  8
SHEET
 66
     1
 10
0.00
 20
0.00
 40
0.00
 41
0.00
  0
VERTEX
  8
SHEET
 10
16423.00
 20
22008.00
 40
0.00
 41
0.00
  0
VERTEX
  8
SHEET
 10
16800.00
 20
22140.00
 40
0.00
 41
0.00
  0
VERTEX
  8
SHEET
 10
16800.00
 20
22140.00
  0
SEQEND
  8
SHEET
  0
TEXT
  8
SHEET
 62
     5
 10
16425.00
 20
21825.00
 40
50.00
  1
SW7a
  0
TEXT
  8
SHEET
 62
     5
 10
16425.00
 20
21765.00
 40
50.00
  1
DPDT
  0
TEXT
  8
SHEET
 62
     5
 10
16425.00
 20
21705.00
 40
50.00
  1
DSC
  0
INSERT
  8
SHEET
  2
2
 10
16350.00
 20
21400.00
 50
270.000
  0
TEXT
  8
SHEET
 62
    54
 10
16375.00
 20
21300.00
 40
50.00
  1
C
  0
TEXT
  8
SHEET
 62
    145
 10
16375.00
 20
21450.00
 40
50.00
  1
5
  0
INSERT
  8
SHEET
  2
2
 10
16750.00
 20
21600.00
 50
270.000
  0
TEXT
  8
SHEET
 62
    54
 10
16675.00
 20
21425.00
 40
50.00
  1
NC
  0
TEXT
  8
SHEET
 62
    145
 10
16650.00
 20
21525.00
 40
50.00
  1
4
 72
     2
 11
16700.00
 21
21525.00
  0
INSERT
  8
SHEET
  2
2
 10
16750.00
 20
21200.00
 50
270.000
  0
TEXT
  8
SHEET
 62
    54
 10
16675.00
 20
21300.00
 40
50.00
  1
NO
  0
TEXT
  8
SHEET
 62
    145
 10
16650.00
 20
21225.00
 40
50.00
  1
6
 72
     2
 11
16700.00
 21
21225.00
  0
POLYLINE
  8
SHEET
 66
     1
 10
0.00
 20
0.00
 40
0.00
 41
0.00
  0
VERTEX
  8
SHEET
 10
16750.00
 20
21575.00
 40
0.00
 41
0.00
 42
0.414
  0
VERTEX
  8
SHEET
 10
16725.00
 20
21550.00
  0
VERTEX
  8
SHEET
 10
16725.00
 20
21550.00
 40
0.00
 41
0.00
 42
0.414
  0
VERTEX
  8
SHEET
 10
16750.00
 20
21525.00
  0
VERTEX
  8
SHEET
 10
16750.00
 20
21525.00
 40
0.00
 41
0.00
 42
0.414
  0
VERTEX
  8
SHEET
 10
16775.00
 20
21550.00
  0
VERTEX
  8
SHEET
 10
16775.00
 20
21550.00
 40
0.00
 41
0.00
 42
0.414
  0
VERTEX
  8
SHEET
 10
16750.00
 20
21575.00
  0
VERTEX
  8
SHEET
 10
16750.00
 20
21575.00
 40
0.00
 41
0.00
  0
VERTEX
  8
SHEET
 10
16750.00
 20
21600.00
 40
0.00
 41
0.00
  0
VERTEX
  8
SHEET
 10
16750.00
 20
21600.00
  0
SEQEND
  8
SHEET
  0
POLYLINE
  8
SHEET
 66
     1
 10
0.00
 20
0.00
 40
0.00
 41
0.00
  0
VERTEX
  8
SHEET
 10
16750.00
 20
21225.00
 40
0.00
 41
0.00
 42
0.414
  0
VERTEX
  8
SHEET
 10
16775.00
 20
21250.00
  0
VERTEX
  8
SHEET
 10
16775.00
 20
21250.00
 40
0.00
 41
0.00
 42
0.414
  0
VERTEX
  8
SHEET
 10
16750.00
 20
21275.00
  0
VERTEX
  8
SHEET
 10
16750.00
 20
21275.00
 40
0.00
 41
0.00
 42
0.414
  0
VERTEX
  8
SHEET
 10
16725.00
 20
21250.00
  0
VERTEX
  8
SHEET
 10
16725.00
 20
21250.00
 40
0.00
 41
0.00
 42
0.414
  0
VERTEX
  8
SHEET
 10
16750.00
 20
21225.00
  0
VERTEX
  8
SHEET
 10
16750.00
 20
21225.00
 40
0.00
 41
0.00
  0
VERTEX
  8
SHEET
 10
16750.00
 20
21200.00
 40
0.00
 41
0.00
  0
VERTEX
  8
SHEET
 10
16750.00
 20
21200.00
  0
SEQEND
  8
SHEET
  0
POLYLINE
  8
SHEET
 66
     1
 10
0.00
 20
0.00
 40
0.00
 41
0.00
  0
VERTEX
  8
SHEET
 10
16375.00
 20
21400.00
 40
0.00
 41
0.00
 42
0.414
  0
VERTEX
  8
SHEET
 10
16400.00
 20
21375.00
  0
VERTEX
  8
SHEET
 10
16400.00
 20
21375.00
 40
0.00
 41
0.00
 42
0.414
  0
VERTEX
  8
SHEET
 10
16425.00
 20
21400.00
  0
VERTEX
  8
SHEET
 10
16425.00
 20
21400.00
 40
0.00
 41
0.00
 42
0.414
  0
VERTEX
  8
SHEET
 10
16400.00
 20
21425.00
  0
VERTEX
  8
SHEET
 10
16400.00
 20
21425.00
 40
0.00
 41
0.00
 42
0.414
  0
VERTEX
  8
SHEET
 10
16375.00
 20
21400.00
  0
VERTEX
  8
SHEET
 10
16375.00
 20
21400.00
 40
0.00
 41
0.00
  0
VERTEX
  8
SHEET
 10
16350.00
 20
21400.00
 40
0.00
 41
0.00
  0
VERTEX
  8
SHEET
 10
16350.00
 20
21400.00
  0
SEQEND
  8
SHEET
  0
POLYLINE
  8
SHEET
 66
     1
 10
0.00
 20
0.00
 40
0.00
 41
0.00
  0
VERTEX
  8
SHEET
 10
16750.00
 20
21550.00
 40
0.00
 41
0.00
  0
VERTEX
  8
SHEET
 10
16749.00
 20
21550.00
 40
0.00
 41
0.00
  0
VERTEX
  8
SHEET
 10
16749.00
 20
21550.00
  0
SEQEND
  8
SHEET
  0
POLYLINE
  8
SHEET
 66
     1
 10
0.00
 20
0.00
 40
0.00
 41
0.00
  0
VERTEX
  8
SHEET
 10
16423.00
 20
21408.00
 40
0.00
 41
0.00
  0
VERTEX
  8
SHEET
 10
16800.00
 20
21540.00
 40
0.00
 41
0.00
  0
VERTEX
  8
SHEET
 10
16800.00
 20
21540.00
  0
SEQEND
  8
SHEET
  0
TEXT
  8
SHEET
 62
     5
 10
16425.00
 20
21225.00
 40
50.00
  1
SW7b
  0
TEXT
  8
SHEET
 62
     5
 10
16425.00
 20
21165.00
 40
50.00
  1
DPDT
  0
TEXT
  8
SHEET
 62
     5
 10
16425.00
 20
21105.00
 40
50.00
  1
DSC
  0
INSERT
  8
SHEET
  2
2
 10
20950.00
 20
23050.00
  0
INSERT
  8
SHEET
  2
2
 10
20950.00
 20
23300.00
  0
INSERT
  8
SHEET
  2
__JUNCTIONS__
 10
20950.00
 20
23300.00
  0
POLYLINE
  8
SHEET
 66
     1
 10
0.00
 20
0.00
 40
0.00
 41
0.00
  0
VERTEX
  8
SHEET
 10
20850.00
 20
23150.00
 40
0.00
 41
0.00
  0
VERTEX
  8
SHEET
 10
21050.00
 20
23150.00
 40
0.00
 41
0.00
  0
VERTEX
  8
SHEET
 10
21050.00
 20
23150.00
  0
SEQEND
  8
SHEET
  0
POLYLINE
  8
SHEET
 66
     1
 10
0.00
 20
0.00
 40
0.00
 41
0.00
  0
VERTEX
  8
SHEET
 10
20850.00
 20
23200.00
 40
0.00
 41
0.00
  0
VERTEX
  8
SHEET
 10
21050.00
 20
23200.00
 40
0.00
 41
0.00
  0
VERTEX
  8
SHEET
 10
21050.00
 20
23200.00
  0
SEQEND
  8
SHEET
  0
POLYLINE
  8
SHEET
 66
     1
 10
0.00
 20
0.00
 40
0.00
 41
0.00
  0
VERTEX
  8
SHEET
 10
20950.00
 20
23050.00
 40
0.00
 41
0.00
  0
VERTEX
  8
SHEET
 10
20950.00
 20
23150.00
 40
0.00
 41
0.00
  0
VERTEX
  8
SHEET
 10
20950.00
 20
23150.00
  0
SEQEND
  8
SHEET
  0
POLYLINE
  8
SHEET
 66
     1
 10
0.00
 20
0.00
 40
0.00
 41
0.00
  0
VERTEX
  8
SHEET
 10
20950.00
 20
23200.00
 40
0.00
 41
0.00
  0
VERTEX
  8
SHEET
 10
20950.00
 20
23300.00
 40
0.00
 41
0.00
  0
VERTEX
  8
SHEET
 10
20950.00
 20
23300.00
  0
SEQEND
  8
SHEET
  0
TEXT
  8
SHEET
 62
     5
 10
21050.00
 20
23350.00
 40
50.00
  1
C10
 50
90.000
  0
TEXT
  8
SHEET
 62
     5
 10
21110.00
 20
23350.00
 40
50.00
  1
50ufd
 50
90.000
  0
TEXT
  8
SHEET
 62
     5
 10
21170.00
 20
23350.00
 40
50.00
  1
2000VDC 
 50
90.000
  0
TEXT
  8
SHEET
 62
     5
 10
21230.00
 20
23350.00
 40
50.00
  1
OIL FILLED
 50
90.000
  0
INSERT
  8
SHEET
  2
2
 10
19450.00
 20
23750.00
 50
270.000
  0
INSERT
  8
SHEET
  2
__JUNCTIONS__
 10
19450.00
 20
23750.00
 50
270.000
  0
INSERT
  8
SHEET
  2
2
 10
19800.00
 20
23750.00
 50
270.000
  0
INSERT
  8
SHEET
  2
__JUNCTIONS__
 10
19800.00
 20
23750.00
 50
270.000
  0
POLYLINE
  8
SHEET
 66
     1
 10
0.00
 20
0.00
 70
     1
 40
0.00
 41
0.00
  0
VERTEX
  8
SHEET
 10
19550.00
 20
23650.00
 40
0.00
 41
0.00
  0
VERTEX
  8
SHEET
 10
19550.00
 20
23850.00
  0
VERTEX
  8
SHEET
 10
19550.00
 20
23850.00
 40
0.00
 41
0.00
  0
VERTEX
  8
SHEET
 10
19700.00
 20
23750.00
  0
VERTEX
  8
SHEET
 10
19700.00
 20
23750.00
 40
0.00
 41
0.00
  0
VERTEX
  8
SHEET
 10
19550.00
 20
23650.00
 40
0.00
 41
0.00
  0
VERTEX
  8
SHEET
 10
19550.00
 20
23650.00
  0
SEQEND
  8
SHEET
  0
POLYLINE
  8
SHEET
 66
     1
 10
0.00
 20
0.00
 40
0.00
 41
0.00
  0
VERTEX
  8
SHEET
 10
19700.00
 20
23850.00
 40
0.00
 41
0.00
  0
VERTEX
  8
SHEET
 10
19700.00
 20
23650.00
 40
0.00
 41
0.00
  0
VERTEX
  8
SHEET
 10
19700.00
 20
23650.00
  0
SEQEND
  8
SHEET
  0
POLYLINE
  8
SHEET
 66
     1
 10
0.00
 20
0.00
 40
0.00
 41
0.00
  0
VERTEX
  8
SHEET
 10
19450.00
 20
23750.00
 40
0.00
 41
0.00
  0
VERTEX
  8
SHEET
 10
19550.00
 20
23750.00
 40
0.00
 41
0.00
  0
VERTEX
  8
SHEET
 10
19550.00
 20
23750.00
  0
SEQEND
  8
SHEET
  0
POLYLINE
  8
SHEET
 66
     1
 10
0.00
 20
0.00
 40
0.00
 41
0.00
  0
VERTEX
  8
SHEET
 10
19700.00
 20
23750.00
 40
0.00
 41
0.00
  0
VERTEX
  8
SHEET
 10
19800.00
 20
23750.00
 40
0.00
 41
0.00
  0
VERTEX
  8
SHEET
 10
19800.00
 20
23750.00
  0
SEQEND
  8
SHEET
  0
TEXT
  8
SHEET
 62
     5
 10
19500.00
 20
23850.00
 40
50.00
  1
D17
  0
INSERT
  8
SHEET
  2
2
 10
19450.00
 20
24000.00
 50
270.000
  0
INSERT
  8
SHEET
  2
2
 10
19800.00
 20
24000.00
 50
270.000
  0
POLYLINE
  8
SHEET
 66
     1
 10
0.00
 20
0.00
 70
     1
 40
0.00
 41
0.00
  0
VERTEX
  8
SHEET
 10
19550.00
 20
23900.00
 40
0.00
 41
0.00
  0
VERTEX
  8
SHEET
 10
19550.00
 20
24100.00
  0
VERTEX
  8
SHEET
 10
19550.00
 20
24100.00
 40
0.00
 41
0.00
  0
VERTEX
  8
SHEET
 10
19700.00
 20
24000.00
  0
VERTEX
  8
SHEET
 10
19700.00
 20
24000.00
 40
0.00
 41
0.00
  0
VERTEX
  8
SHEET
 10
19550.00
 20
23900.00
 40
0.00
 41
0.00
  0
VERTEX
  8
SHEET
 10
19550.00
 20
23900.00
  0
SEQEND
  8
SHEET
  0
POLYLINE
  8
SHEET
 66
     1
 10
0.00
 20
0.00
 40
0.00
 41
0.00
  0
VERTEX
  8
SHEET
 10
19700.00
 20
24100.00
 40
0.00
 41
0.00
  0
VERTEX
  8
SHEET
 10
19700.00
 20
23900.00
 40
0.00
 41
0.00
  0
VERTEX
  8
SHEET
 10
19700.00
 20
23900.00
  0
SEQEND
  8
SHEET
  0
POLYLINE
  8
SHEET
 66
     1
 10
0.00
 20
0.00
 40
0.00
 41
0.00
  0
VERTEX
  8
SHEET
 10
19450.00
 20
24000.00
 40
0.00
 41
0.00
  0
VERTEX
  8
SHEET
 10
19550.00
 20
24000.00
 40
0.00
 41
0.00
  0
VERTEX
  8
SHEET
 10
19550.00
 20
24000.00
  0
SEQEND
  8
SHEET
  0
POLYLINE
  8
SHEET
 66
     1
 10
0.00
 20
0.00
 40
0.00
 41
0.00
  0
VERTEX
  8
SHEET
 10
19700.00
 20
24000.00
 40
0.00
 41
0.00
  0
VERTEX
  8
SHEET
 10
19800.00
 20
24000.00
 40
0.00
 41
0.00
  0
VERTEX
  8
SHEET
 10
19800.00
 20
24000.00
  0
SEQEND
  8
SHEET
  0
TEXT
  8
SHEET
 62
     5
 10
19500.00
 20
24100.00
 40
50.00
  1
D18
  0
INSERT
  8
SHEET
  2
2
 10
26000.00
 20
20450.00
  0
INSERT
  8
SHEET
  2
2
 10
26000.00
 20
20950.00
  0
INSERT
  8
SHEET
  2
2
 10
25800.00
 20
20700.00
  0
POLYLINE
  8
SHEET
 66
     1
 10
0.00
 20
0.00
 70
     1
 40
0.00
 41
0.00
  0
VERTEX
  8
SHEET
 10
26050.00
 20
20550.00
 40
0.00
 41
0.00
  0
VERTEX
  8
SHEET
 10
25950.00
 20
20550.00
  0
VERTEX
  8
SHEET
 10
25950.00
 20
20550.00
 40
0.00
 41
0.00
  0
VERTEX
  8
SHEET
 10
25950.00
 20
20850.00
  0
VERTEX
  8
SHEET
 10
25950.00
 20
20850.00
 40
0.00
 41
0.00
  0
VERTEX
  8
SHEET
 10
26050.00
 20
20850.00
  0
VERTEX
  8
SHEET
 10
26050.00
 20
20850.00
 40
0.00
 41
0.00
  0
VERTEX
  8
SHEET
 10
26050.00
 20
20550.00
 40
0.00
 41
0.00
  0
VERTEX
  8
SHEET
 10
26050.00
 20
20550.00
  0
SEQEND
  8
SHEET
  0
POLYLINE
  8
SHEET
 66
     1
 10
0.00
 20
0.00
 40
0.00
 41
0.00
  0
VERTEX
  8
SHEET
 10
26000.00
 20
20450.00
 40
0.00
 41
0.00
  0
VERTEX
  8
SHEET
 10
26000.00
 20
20550.00
 40
0.00
 41
0.00
  0
VERTEX
  8
SHEET
 10
26000.00
 20
20550.00
  0
SEQEND
  8
SHEET
  0
POLYLINE
  8
SHEET
 66
     1
 10
0.00
 20
0.00
 40
0.00
 41
0.00
  0
VERTEX
  8
SHEET
 10
26000.00
 20
20850.00
 40
0.00
 41
0.00
  0
VERTEX
  8
SHEET
 10
26000.00
 20
20950.00
 40
0.00
 41
0.00
  0
VERTEX
  8
SHEET
 10
26000.00
 20
20950.00
  0
SEQEND
  8
SHEET
  0
POLYLINE
  8
SHEET
 66
     1
 10
0.00
 20
0.00
 40
0.00
 41
0.00
  0
VERTEX
  8
SHEET
 10
25800.00
 20
20700.00
 40
0.00
 41
0.00
  0
VERTEX
  8
SHEET
 10
25925.00
 20
20700.00
 40
0.00
 41
0.00
  0
VERTEX
  8
SHEET
 10
25925.00
 20
20700.00
  0
SEQEND
  8
SHEET
  0
POLYLINE
  8
SHEET
 66
     1
 10
0.00
 20
0.00
 40
0.00
 41
0.00
  0
VERTEX
  8
SHEET
 10
25925.00
 20
20675.00
 40
0.00
 41
0.00
  0
VERTEX
  8
SHEET
 10
25925.00
 20
20725.00
 40
0.00
 41
0.00
  0
VERTEX
  8
SHEET
 10
25925.00
 20
20725.00
  0
SEQEND
  8
SHEET
  0
TEXT
  8
SHEET
 62
     5
 10
26125.00
 20
20625.00
 40
50.00
  1
RL3
 50
90.000
  0
TEXT
  8
SHEET
 62
     5
 10
26185.00
 20
20625.00
 40
50.00
  1
Flashlamp
 50
90.000
  0
INSERT
  8
SHEET
  2
2
 10
20250.00
 20
22800.00
  0
INSERT
  8
SHEET
  2
2
 10
20250.00
 20
23300.00
  0
POLYLINE
  8
SHEET
 66
     1
 10
0.00
 20
0.00
 40
0.00
 41
0.00
  0
VERTEX
  8
SHEET
 10
20250.00
 20
23300.00
 40
0.00
 41
0.00
  0
VERTEX
  8
SHEET
 10
20250.00
 20
23200.00
  0
VERTEX
  8
SHEET
 10
20250.00
 20
23200.00
 40
0.00
 41
0.00
  0
VERTEX
  8
SHEET
 10
20200.00
 20
23175.00
  0
VERTEX
  8
SHEET
 10
20200.00
 20
23175.00
 40
0.00
 41
0.00
  0
VERTEX
  8
SHEET
 10
20300.00
 20
23125.00
  0
VERTEX
  8
SHEET
 10
20300.00
 20
23125.00
 40
0.00
 41
0.00
  0
VERTEX
  8
SHEET
 10
20200.00
 20
23075.00
  0
VERTEX
  8
SHEET
 10
20200.00
 20
23075.00
 40
0.00
 41
0.00
  0
VERTEX
  8
SHEET
 10
20300.00
 20
23025.00
  0
VERTEX
  8
SHEET
 10
20300.00
 20
23025.00
 40
0.00
 41
0.00
  0
VERTEX
  8
SHEET
 10
20200.00
 20
22975.00
  0
VERTEX
  8
SHEET
 10
20200.00
 20
22975.00
 40
0.00
 41
0.00
  0
VERTEX
  8
SHEET
 10
20300.00
 20
22925.00
  0
VERTEX
  8
SHEET
 10
20300.00
 20
22925.00
 40
0.00
 41
0.00
  0
VERTEX
  8
SHEET
 10
20250.00
 20
22900.00
  0
VERTEX
  8
SHEET
 10
20250.00
 20
22900.00
 40
0.00
 41
0.00
  0
VERTEX
  8
SHEET
 10
20250.00
 20
22800.00
 40
0.00
 41
0.00
  0
VERTEX
  8
SHEET
 10
20250.00
 20
22800.00
  0
SEQEND
  8
SHEET
  0
TEXT
  8
SHEET
 62
     5
 10
20350.00
 20
22750.00
 40
50.00
  1
R37
 50
90.000
  0
TEXT
  8
SHEET
 62
     5
 10
20410.00
 20
22750.00
 40
50.00
  1
2M  4W
 50
90.000
  0
TEXT
  8
SHEET
 62
     5
 10
20470.00
 20
22750.00
 40
50.00
  1
HV TYPE
 50
90.000
  0
INSERT
  8
SHEET
  2
__JUNCTIONS__
 10
23000.00
 20
20050.00
  0
INSERT
  8
SHEET
  2
__JUNCTIONS__
 10
22750.00
 20
20050.00
  0
POLYLINE
  8
SHEET
 66
     1
 10
0.00
 20
0.00
 40
0.00
 41
0.00
  0
VERTEX
  8
SHEET
 10
23600.00
 20
20250.00
 40
0.00
 41
0.00
  0
VERTEX
  8
SHEET
 10
23450.00
 20
20250.00
  0
VERTEX
  8
SHEET
 10
23450.00
 20
20250.00
 40
0.00
 41
0.00
  0
VERTEX
  8
SHEET
 10
23450.00
 20
20050.00
  0
VERTEX
  8
SHEET
 10
23450.00
 20
20050.00
 40
0.00
 41
0.00
  0
VERTEX
  8
SHEET
 10
23000.00
 20
20050.00
 40
0.00
 41
0.00
  0
VERTEX
  8
SHEET
 10
23000.00
 20
20050.00
  0
SEQEND
  8
SHEET
  0
POLYLINE
  8
SHEET
 66
     1
 10
0.00
 20
0.00
 40
0.00
 41
0.00
  0
VERTEX
  8
SHEET
 10
23000.00
 20
20200.00
 40
0.00
 41
0.00
  0
VERTEX
  8
SHEET
 10
23000.00
 20
20050.00
 40
0.00
 41
0.00
  0
VERTEX
  8
SHEET
 10
23000.00
 20
20050.00
  0
SEQEND
  8
SHEET
  0
POLYLINE
  8
SHEET
 66
     1
 10
0.00
 20
0.00
 40
0.00
 41
0.00
  0
VERTEX
  8
SHEET
 10
23000.00
 20
20050.00
 40
0.00
 41
0.00
  0
VERTEX
  8
SHEET
 10
22750.00
 20
20050.00
 40
0.00
 41
0.00
  0
VERTEX
  8
SHEET
 10
22750.00
 20
20050.00
  0
SEQEND
  8
SHEET
  0
POLYLINE
  8
SHEET
 66
     1
 10
0.00
 20
0.00
 40
0.00
 41
0.00
  0
VERTEX
  8
SHEET
 10
22550.00
 20
19900.00
 40
0.00
 41
0.00
  0
VERTEX
  8
SHEET
 10
22550.00
 20
20050.00
  0
VERTEX
  8
SHEET
 10
22550.00
 20
20050.00
 40
0.00
 41
0.00
  0
VERTEX
  8
SHEET
 10
22750.00
 20
20050.00
 40
0.00
 41
0.00
  0
VERTEX
  8
SHEET
 10
22750.00
 20
20050.00
  0
SEQEND
  8
SHEET
  0
POLYLINE
  8
SHEET
 66
     1
 10
0.00
 20
0.00
 40
0.00
 41
0.00
  0
VERTEX
  8
SHEET
 10
22750.00
 20
20050.00
 40
0.00
 41
0.00
  0
VERTEX
  8
SHEET
 10
22750.00
 20
20150.00
 40
0.00
 41
0.00
  0
VERTEX
  8
SHEET
 10
22750.00
 20
20150.00
  0
SEQEND
  8
SHEET
  0
INSERT
  8
SHEET
  2
__JUNCTIONS__
 10
23000.00
 20
20650.00
  0
INSERT
  8
SHEET
  2
__JUNCTIONS__
 10
22750.00
 20
20650.00
  0
POLYLINE
  8
SHEET
 66
     1
 10
0.00
 20
0.00
 40
0.00
 41
0.00
  0
VERTEX
  8
SHEET
 10
23000.00
 20
20550.00
 40
0.00
 41
0.00
  0
VERTEX
  8
SHEET
 10
23000.00
 20
20650.00
 40
0.00
 41
0.00
  0
VERTEX
  8
SHEET
 10
23000.00
 20
20650.00
  0
SEQEND
  8
SHEET
  0
POLYLINE
  8
SHEET
 66
     1
 10
0.00
 20
0.00
 40
0.00
 41
0.00
  0
VERTEX
  8
SHEET
 10
22750.00
 20
20550.00
 40
0.00
 41
0.00
  0
VERTEX
  8
SHEET
 10
22750.00
 20
20650.00
 40
0.00
 41
0.00
  0
VERTEX
  8
SHEET
 10
22750.00
 20
20650.00
  0
SEQEND
  8
SHEET
  0
POLYLINE
  8
SHEET
 66
     1
 10
0.00
 20
0.00
 40
0.00
 41
0.00
  0
VERTEX
  8
SHEET
 10
23000.00
 20
20650.00
 40
0.00
 41
0.00
  0
VERTEX
  8
SHEET
 10
23100.00
 20
20650.00
 40
0.00
 41
0.00
  0
VERTEX
  8
SHEET
 10
23100.00
 20
20650.00
  0
SEQEND
  8
SHEET
  0
POLYLINE
  8
SHEET
 66
     1
 10
0.00
 20
0.00
 40
0.00
 41
0.00
  0
VERTEX
  8
SHEET
 10
22000.00
 20
20650.00
 40
0.00
 41
0.00
  0
VERTEX
  8
SHEET
 10
22750.00
 20
20650.00
 40
0.00
 41
0.00
  0
VERTEX
  8
SHEET
 10
22750.00
 20
20650.00
  0
SEQEND
  8
SHEET
  0
POLYLINE
  8
SHEET
 66
     1
 10
0.00
 20
0.00
 40
0.00
 41
0.00
  0
VERTEX
  8
SHEET
 10
22750.00
 20
20650.00
 40
0.00
 41
0.00
  0
VERTEX
  8
SHEET
 10
23000.00
 20
20650.00
 40
0.00
 41
0.00
  0
VERTEX
  8
SHEET
 10
23000.00
 20
20650.00
  0
SEQEND
  8
SHEET
  0
INSERT
  8
SHEET
  2
__JUNCTIONS__
 10
22650.00
 20
21650.00
  0
INSERT
  8
SHEET
  2
__JUNCTIONS__
 10
22900.00
 20
21650.00
  0
POLYLINE
  8
SHEET
 66
     1
 10
0.00
 20
0.00
 40
0.00
 41
0.00
  0
VERTEX
  8
SHEET
 10
21900.00
 20
21650.00
 40
0.00
 41
0.00
  0
VERTEX
  8
SHEET
 10
22650.00
 20
21650.00
 40
0.00
 41
0.00
  0
VERTEX
  8
SHEET
 10
22650.00
 20
21650.00
  0
SEQEND
  8
SHEET
  0
POLYLINE
  8
SHEET
 66
     1
 10
0.00
 20
0.00
 40
0.00
 41
0.00
  0
VERTEX
  8
SHEET
 10
22650.00
 20
21550.00
 40
0.00
 41
0.00
  0
VERTEX
  8
SHEET
 10
22650.00
 20
21650.00
 40
0.00
 41
0.00
  0
VERTEX
  8
SHEET
 10
22650.00
 20
21650.00
  0
SEQEND
  8
SHEET
  0
POLYLINE
  8
SHEET
 66
     1
 10
0.00
 20
0.00
 40
0.00
 41
0.00
  0
VERTEX
  8
SHEET
 10
22650.00
 20
21650.00
 40
0.00
 41
0.00
  0
VERTEX
  8
SHEET
 10
22900.00
 20
21650.00
 40
0.00
 41
0.00
  0
VERTEX
  8
SHEET
 10
22900.00
 20
21650.00
  0
SEQEND
  8
SHEET
  0
POLYLINE
  8
SHEET
 66
     1
 10
0.00
 20
0.00
 40
0.00
 41
0.00
  0
VERTEX
  8
SHEET
 10
22900.00
 20
21550.00
 40
0.00
 41
0.00
  0
VERTEX
  8
SHEET
 10
22900.00
 20
21650.00
 40
0.00
 41
0.00
  0
VERTEX
  8
SHEET
 10
22900.00
 20
21650.00
  0
SEQEND
  8
SHEET
  0
POLYLINE
  8
SHEET
 66
     1
 10
0.00
 20
0.00
 40
0.00
 41
0.00
  0
VERTEX
  8
SHEET
 10
22900.00
 20
21650.00
 40
0.00
 41
0.00
  0
VERTEX
  8
SHEET
 10
23000.00
 20
21650.00
 40
0.00
 41
0.00
  0
VERTEX
  8
SHEET
 10
23000.00
 20
21650.00
  0
SEQEND
  8
SHEET
  0
INSERT
  8
SHEET
  2
__JUNCTIONS__
 10
22900.00
 20
21050.00
  0
INSERT
  8
SHEET
  2
__JUNCTIONS__
 10
22650.00
 20
21050.00
  0
POLYLINE
  8
SHEET
 66
     1
 10
0.00
 20
0.00
 40
0.00
 41
0.00
  0
VERTEX
  8
SHEET
 10
23550.00
 20
21250.00
 40
0.00
 41
0.00
  0
VERTEX
  8
SHEET
 10
23550.00
 20
21050.00
  0
VERTEX
  8
SHEET
 10
23550.00
 20
21050.00
 40
0.00
 41
0.00
  0
VERTEX
  8
SHEET
 10
22900.00
 20
21050.00
 40
0.00
 41
0.00
  0
VERTEX
  8
SHEET
 10
22900.00
 20
21050.00
  0
SEQEND
  8
SHEET
  0
POLYLINE
  8
SHEET
 66
     1
 10
0.00
 20
0.00
 40
0.00
 41
0.00
  0
VERTEX
  8
SHEET
 10
22900.00
 20
21200.00
 40
0.00
 41
0.00
  0
VERTEX
  8
SHEET
 10
22900.00
 20
21050.00
 40
0.00
 41
0.00
  0
VERTEX
  8
SHEET
 10
22900.00
 20
21050.00
  0
SEQEND
  8
SHEET
  0
POLYLINE
  8
SHEET
 66
     1
 10
0.00
 20
0.00
 40
0.00
 41
0.00
  0
VERTEX
  8
SHEET
 10
22900.00
 20
21050.00
 40
0.00
 41
0.00
  0
VERTEX
  8
SHEET
 10
22650.00
 20
21050.00
 40
0.00
 41
0.00
  0
VERTEX
  8
SHEET
 10
22650.00
 20
21050.00
  0
SEQEND
  8
SHEET
  0
POLYLINE
  8
SHEET
 66
     1
 10
0.00
 20
0.00
 40
0.00
 41
0.00
  0
VERTEX
  8
SHEET
 10
22400.00
 20
21050.00
 40
0.00
 41
0.00
  0
VERTEX
  8
SHEET
 10
22650.00
 20
21050.00
 40
0.00
 41
0.00
  0
VERTEX
  8
SHEET
 10
22650.00
 20
21050.00
  0
SEQEND
  8
SHEET
  0
POLYLINE
  8
SHEET
 66
     1
 10
0.00
 20
0.00
 40
0.00
 41
0.00
  0
VERTEX
  8
SHEET
 10
22650.00
 20
21050.00
 40
0.00
 41
0.00
  0
VERTEX
  8
SHEET
 10
22650.00
 20
21150.00
 40
0.00
 41
0.00
  0
VERTEX
  8
SHEET
 10
22650.00
 20
21150.00
  0
SEQEND
  8
SHEET
  0
INSERT
  8
SHEET
  2
__JUNCTIONS__
 10
19050.00
 20
25750.00
  0
POLYLINE
  8
SHEET
 66
     1
 10
0.00
 20
0.00
 40
0.00
 41
0.00
  0
VERTEX
  8
SHEET
 10
18750.00
 20
25750.00
 40
0.00
 41
0.00
  0
VERTEX
  8
SHEET
 10
19050.00
 20
25750.00
 40
0.00
 41
0.00
  0
VERTEX
  8
SHEET
 10
19050.00
 20
25750.00
  0
SEQEND
  8
SHEET
  0
POLYLINE
  8
SHEET
 66
     1
 10
0.00
 20
0.00
 40
0.00
 41
0.00
  0
VERTEX
  8
SHEET
 10
19050.00
 20
25750.00
 40
0.00
 41
0.00
  0
VERTEX
  8
SHEET
 10
19200.00
 20
25750.00
 40
0.00
 41
0.00
  0
VERTEX
  8
SHEET
 10
19200.00
 20
25750.00
  0
SEQEND
  8
SHEET
  0
POLYLINE
  8
SHEET
 66
     1
 10
0.00
 20
0.00
 40
0.00
 41
0.00
  0
VERTEX
  8
SHEET
 10
19050.00
 20
25750.00
 40
0.00
 41
0.00
  0
VERTEX
  8
SHEET
 10
19050.00
 20
25250.00
 40
0.00
 41
0.00
  0
VERTEX
  8
SHEET
 10
19050.00
 20
25250.00
  0
SEQEND
  8
SHEET
  0
INSERT
  8
SHEET
  2
__JUNCTIONS__
 10
20150.00
 20
25750.00
  0
INSERT
  8
SHEET
  2
__JUNCTIONS__
 10
19700.00
 20
25750.00
  0
INSERT
  8
SHEET
  2
__JUNCTIONS__
 10
20550.00
 20
25750.00
  0
POLYLINE
  8
SHEET
 66
     1
 10
0.00
 20
0.00
 40
0.00
 41
0.00
  0
VERTEX
  8
SHEET
 10
19550.00
 20
25750.00
 40
0.00
 41
0.00
  0
VERTEX
  8
SHEET
 10
19700.00
 20
25750.00
 40
0.00
 41
0.00
  0
VERTEX
  8
SHEET
 10
19700.00
 20
25750.00
  0
SEQEND
  8
SHEET
  0
POLYLINE
  8
SHEET
 66
     1
 10
0.00
 20
0.00
 40
0.00
 41
0.00
  0
VERTEX
  8
SHEET
 10
20550.00
 20
25400.00
 40
0.00
 41
0.00
  0
VERTEX
  8
SHEET
 10
20550.00
 20
25750.00
 40
0.00
 41
0.00
  0
VERTEX
  8
SHEET
 10
20550.00
 20
25750.00
  0
SEQEND
  8
SHEET
  0
POLYLINE
  8
SHEET
 66
     1
 10
0.00
 20
0.00
 40
0.00
 41
0.00
  0
VERTEX
  8
SHEET
 10
20150.00
 20
25650.00
 40
0.00
 41
0.00
  0
VERTEX
  8
SHEET
 10
20150.00
 20
25750.00
 40
0.00
 41
0.00
  0
VERTEX
  8
SHEET
 10
20150.00
 20
25750.00
  0
SEQEND
  8
SHEET
  0
POLYLINE
  8
SHEET
 66
     1
 10
0.00
 20
0.00
 40
0.00
 41
0.00
  0
VERTEX
  8
SHEET
 10
19700.00
 20
25750.00
 40
0.00
 41
0.00
  0
VERTEX
  8
SHEET
 10
20150.00
 20
25750.00
 40
0.00
 41
0.00
  0
VERTEX
  8
SHEET
 10
20150.00
 20
25750.00
  0
SEQEND
  8
SHEET
  0
POLYLINE
  8
SHEET
 66
     1
 10
0.00
 20
0.00
 40
0.00
 41
0.00
  0
VERTEX
  8
SHEET
 10
19700.00
 20
25750.00
 40
0.00
 41
0.00
  0
VERTEX
  8
SHEET
 10
19700.00
 20
25250.00
 40
0.00
 41
0.00
  0
VERTEX
  8
SHEET
 10
19700.00
 20
25250.00
  0
SEQEND
  8
SHEET
  0
POLYLINE
  8
SHEET
 66
     1
 10
0.00
 20
0.00
 40
0.00
 41
0.00
  0
VERTEX
  8
SHEET
 10
20550.00
 20
25750.00
 40
0.00
 41
0.00
  0
VERTEX
  8
SHEET
 10
20150.00
 20
25750.00
 40
0.00
 41
0.00
  0
VERTEX
  8
SHEET
 10
20150.00
 20
25750.00
  0
SEQEND
  8
SHEET
  0
POLYLINE
  8
SHEET
 66
     1
 10
0.00
 20
0.00
 40
0.00
 41
0.00
  0
VERTEX
  8
SHEET
 10
20550.00
 20
25750.00
 40
0.00
 41
0.00
  0
VERTEX
  8
SHEET
 10
21350.00
 20
25750.00
  0
VERTEX
  8
SHEET
 10
21350.00
 20
25750.00
 40
0.00
 41
0.00
  0
VERTEX
  8
SHEET
 10
21350.00
 20
22300.00
  0
VERTEX
  8
SHEET
 10
21350.00
 20
22300.00
 40
0.00
 41
0.00
  0
VERTEX
  8
SHEET
 10
25100.00
 20
22300.00
  0
VERTEX
  8
SHEET
 10
25100.00
 20
22300.00
 40
0.00
 41
0.00
  0
VERTEX
  8
SHEET
 10
25100.00
 20
21900.00
 40
0.00
 41
0.00
  0
VERTEX
  8
SHEET
 10
25100.00
 20
21900.00
  0
SEQEND
  8
SHEET
  0
INSERT
  8
SHEET
  2
__JUNCTIONS__
 10
21750.00
 20
24850.00
  0
INSERT
  8
SHEET
  2
__JUNCTIONS__
 10
20150.00
 20
25050.00
  0
POLYLINE
  8
SHEET
 66
     1
 10
0.00
 20
0.00
 40
0.00
 41
0.00
  0
VERTEX
  8
SHEET
 10
20150.00
 20
25150.00
 40
0.00
 41
0.00
  0
VERTEX
  8
SHEET
 10
20150.00
 20
25050.00
 40
0.00
 41
0.00
  0
VERTEX
  8
SHEET
 10
20150.00
 20
25050.00
  0
SEQEND
  8
SHEET
  0
POLYLINE
  8
SHEET
 66
     1
 10
0.00
 20
0.00
 40
0.00
 41
0.00
  0
VERTEX
  8
SHEET
 10
22600.00
 20
24850.00
 40
0.00
 41
0.00
  0
VERTEX
  8
SHEET
 10
21750.00
 20
24850.00
 40
0.00
 41
0.00
  0
VERTEX
  8
SHEET
 10
21750.00
 20
24850.00
  0
SEQEND
  8
SHEET
  0
POLYLINE
  8
SHEET
 66
     1
 10
0.00
 20
0.00
 40
0.00
 41
0.00
  0
VERTEX
  8
SHEET
 10
21750.00
 20
24850.00
 40
0.00
 41
0.00
  0
VERTEX
  8
SHEET
 10
21750.00
 20
27100.00
  0
VERTEX
  8
SHEET
 10
21750.00
 20
27100.00
 40
0.00
 41
0.00
  0
VERTEX
  8
SHEET
 10
21500.00
 20
27100.00
  0
VERTEX
  8
SHEET
 10
21500.00
 20
27100.00
 40
0.00
 41
0.00
  0
VERTEX
  8
SHEET
 10
21500.00
 20
27800.00
  0
VERTEX
  8
SHEET
 10
21500.00
 20
27800.00
 40
0.00
 41
0.00
  0
VERTEX
  8
SHEET
 10
22150.00
 20
27800.00
 40
0.00
 41
0.00
  0
VERTEX
  8
SHEET
 10
22150.00
 20
27800.00
  0
SEQEND
  8
SHEET
  0
POLYLINE
  8
SHEET
 66
     1
 10
0.00
 20
0.00
 40
0.00
 41
0.00
  0
VERTEX
  8
SHEET
 10
20150.00
 20
25050.00
 40
0.00
 41
0.00
  0
VERTEX
  8
SHEET
 10
20400.00
 20
25050.00
  0
VERTEX
  8
SHEET
 10
20400.00
 20
25050.00
 40
0.00
 41
0.00
  0
VERTEX
  8
SHEET
 10
20400.00
 20
24850.00
  0
VERTEX
  8
SHEET
 10
20400.00
 20
24850.00
 40
0.00
 41
0.00
  0
VERTEX
  8
SHEET
 10
21750.00
 20
24850.00
 40
0.00
 41
0.00
  0
VERTEX
  8
SHEET
 10
21750.00
 20
24850.00
  0
SEQEND
  8
SHEET
  0
POLYLINE
  8
SHEET
 66
     1
 10
0.00
 20
0.00
 40
0.00
 41
0.00
  0
VERTEX
  8
SHEET
 10
20150.00
 20
25050.00
 40
0.00
 41
0.00
  0
VERTEX
  8
SHEET
 10
20150.00
 20
25000.00
 40
0.00
 41
0.00
  0
VERTEX
  8
SHEET
 10
20150.00
 20
25000.00
  0
SEQEND
  8
SHEET
  0
INSERT
  8
SHEET
  2
__JUNCTIONS__
 10
19050.00
 20
24350.00
  0
INSERT
  8
SHEET
  2
__JUNCTIONS__
 10
19700.00
 20
24350.00
  0
INSERT
  8
SHEET
  2
__JUNCTIONS__
 10
20550.00
 20
24350.00
  0
POLYLINE
  8
SHEET
 66
     1
 10
0.00
 20
0.00
 40
0.00
 41
0.00
  0
VERTEX
  8
SHEET
 10
18300.00
 20
25350.00
 40
0.00
 41
0.00
  0
VERTEX
  8
SHEET
 10
18450.00
 20
25350.00
  0
VERTEX
  8
SHEET
 10
18450.00
 20
25350.00
 40
0.00
 41
0.00
  0
VERTEX
  8
SHEET
 10
18450.00
 20
24350.00
  0
VERTEX
  8
SHEET
 10
18450.00
 20
24350.00
 40
0.00
 41
0.00
  0
VERTEX
  8
SHEET
 10
19050.00
 20
24350.00
 40
0.00
 41
0.00
  0
VERTEX
  8
SHEET
 10
19050.00
 20
24350.00
  0
SEQEND
  8
SHEET
  0
POLYLINE
  8
SHEET
 66
     1
 10
0.00
 20
0.00
 40
0.00
 41
0.00
  0
VERTEX
  8
SHEET
 10
19050.00
 20
24900.00
 40
0.00
 41
0.00
  0
VERTEX
  8
SHEET
 10
19050.00
 20
24350.00
 40
0.00
 41
0.00
  0
VERTEX
  8
SHEET
 10
19050.00
 20
24350.00
  0
SEQEND
  8
SHEET
  0
POLYLINE
  8
SHEET
 66
     1
 10
0.00
 20
0.00
 40
0.00
 41
0.00
  0
VERTEX
  8
SHEET
 10
19050.00
 20
24350.00
 40
0.00
 41
0.00
  0
VERTEX
  8
SHEET
 10
19700.00
 20
24350.00
 40
0.00
 41
0.00
  0
VERTEX
  8
SHEET
 10
19700.00
 20
24350.00
  0
SEQEND
  8
SHEET
  0
POLYLINE
  8
SHEET
 66
     1
 10
0.00
 20
0.00
 40
0.00
 41
0.00
  0
VERTEX
  8
SHEET
 10
19700.00
 20
24350.00
 40
0.00
 41
0.00
  0
VERTEX
  8
SHEET
 10
20150.00
 20
24350.00
  0
VERTEX
  8
SHEET
 10
20150.00
 20
24350.00
 40
0.00
 41
0.00
  0
VERTEX
  8
SHEET
 10
20150.00
 20
24500.00
 40
0.00
 41
0.00
  0
VERTEX
  8
SHEET
 10
20150.00
 20
24500.00
  0
SEQEND
  8
SHEET
  0
POLYLINE
  8
SHEET
 66
     1
 10
0.00
 20
0.00
 40
0.00
 41
0.00
  0
VERTEX
  8
SHEET
 10
20550.00
 20
24200.00
 40
0.00
 41
0.00
  0
VERTEX
  8
SHEET
 10
20550.00
 20
24350.00
 40
0.00
 41
0.00
  0
VERTEX
  8
SHEET
 10
20550.00
 20
24350.00
  0
SEQEND
  8
SHEET
  0
POLYLINE
  8
SHEET
 66
     1
 10
0.00
 20
0.00
 40
0.00
 41
0.00
  0
VERTEX
  8
SHEET
 10
19700.00
 20
24750.00
 40
0.00
 41
0.00
  0
VERTEX
  8
SHEET
 10
19700.00
 20
24350.00
 40
0.00
 41
0.00
  0
VERTEX
  8
SHEET
 10
19700.00
 20
24350.00
  0
SEQEND
  8
SHEET
  0
POLYLINE
  8
SHEET
 66
     1
 10
0.00
 20
0.00
 40
0.00
 41
0.00
  0
VERTEX
  8
SHEET
 10
20550.00
 20
24500.00
 40
0.00
 41
0.00
  0
VERTEX
  8
SHEET
 10
20550.00
 20
24350.00
 40
0.00
 41
0.00
  0
VERTEX
  8
SHEET
 10
20550.00
 20
24350.00
  0
SEQEND
  8
SHEET
  0
POLYLINE
  8
SHEET
 66
     1
 10
0.00
 20
0.00
 40
0.00
 41
0.00
  0
VERTEX
  8
SHEET
 10
20550.00
 20
24350.00
 40
0.00
 41
0.00
  0
VERTEX
  8
SHEET
 10
19700.00
 20
24350.00
 40
0.00
 41
0.00
  0
VERTEX
  8
SHEET
 10
19700.00
 20
24350.00
  0
SEQEND
  8
SHEET
  0
INSERT
  8
SHEET
  2
__JUNCTIONS__
 10
18850.00
 20
23750.00
  0
POLYLINE
  8
SHEET
 66
     1
 10
0.00
 20
0.00
 40
0.00
 41
0.00
  0
VERTEX
  8
SHEET
 10
18850.00
 20
23300.00
 40
0.00
 41
0.00
  0
VERTEX
  8
SHEET
 10
18850.00
 20
23750.00
 40
0.00
 41
0.00
  0
VERTEX
  8
SHEET
 10
18850.00
 20
23750.00
  0
SEQEND
  8
SHEET
  0
POLYLINE
  8
SHEET
 66
     1
 10
0.00
 20
0.00
 40
0.00
 41
0.00
  0
VERTEX
  8
SHEET
 10
18800.00
 20
23750.00
 40
0.00
 41
0.00
  0
VERTEX
  8
SHEET
 10
18850.00
 20
23750.00
 40
0.00
 41
0.00
  0
VERTEX
  8
SHEET
 10
18850.00
 20
23750.00
  0
SEQEND
  8
SHEET
  0
POLYLINE
  8
SHEET
 66
     1
 10
0.00
 20
0.00
 40
0.00
 41
0.00
  0
VERTEX
  8
SHEET
 10
18850.00
 20
23750.00
 40
0.00
 41
0.00
  0
VERTEX
  8
SHEET
 10
18950.00
 20
23750.00
 40
0.00
 41
0.00
  0
VERTEX
  8
SHEET
 10
18950.00
 20
23750.00
  0
SEQEND
  8
SHEET
  0
INSERT
  8
SHEET
  2
__JUNCTIONS__
 10
21650.00
 20
22700.00
  0
POLYLINE
  8
SHEET
 66
     1
 10
0.00
 20
0.00
 40
0.00
 41
0.00
  0
VERTEX
  8
SHEET
 10
19900.00
 20
23200.00
 40
0.00
 41
0.00
  0
VERTEX
  8
SHEET
 10
19900.00
 20
23100.00
 40
0.00
 41
0.00
  0
VERTEX
  8
SHEET
 10
19900.00
 20
23100.00
  0
SEQEND
  8
SHEET
  0
POLYLINE
  8
SHEET
 66
     1
 10
0.00
 20
0.00
 40
0.00
 41
0.00
  0
VERTEX
  8
SHEET
 10
22650.00
 20
22700.00
 40
0.00
 41
0.00
  0
VERTEX
  8
SHEET
 10
21650.00
 20
22700.00
 40
0.00
 41
0.00
  0
VERTEX
  8
SHEET
 10
21650.00
 20
22700.00
  0
SEQEND
  8
SHEET
  0
POLYLINE
  8
SHEET
 66
     1
 10
0.00
 20
0.00
 40
0.00
 41
0.00
  0
VERTEX
  8
SHEET
 10
21650.00
 20
22700.00
 40
0.00
 41
0.00
  0
VERTEX
  8
SHEET
 10
21650.00
 20
27000.00
  0
VERTEX
  8
SHEET
 10
21650.00
 20
27000.00
 40
0.00
 41
0.00
  0
VERTEX
  8
SHEET
 10
21600.00
 20
27000.00
  0
VERTEX
  8
SHEET
 10
21600.00
 20
27000.00
 40
0.00
 41
0.00
  0
VERTEX
  8
SHEET
 10
21600.00
 20
27500.00
 40
0.00
 41
0.00
  0
VERTEX
  8
SHEET
 10
21600.00
 20
27500.00
  0
SEQEND
  8
SHEET
  0
POLYLINE
  8
SHEET
 66
     1
 10
0.00
 20
0.00
 40
0.00
 41
0.00
  0
VERTEX
  8
SHEET
 10
19900.00
 20
23100.00
 40
0.00
 41
0.00
  0
VERTEX
  8
SHEET
 10
20100.00
 20
23100.00
  0
VERTEX
  8
SHEET
 10
20100.00
 20
23100.00
 40
0.00
 41
0.00
  0
VERTEX
  8
SHEET
 10
20100.00
 20
22700.00
  0
VERTEX
  8
SHEET
 10
20100.00
 20
22700.00
 40
0.00
 41
0.00
  0
VERTEX
  8
SHEET
 10
21650.00
 20
22700.00
 40
0.00
 41
0.00
  0
VERTEX
  8
SHEET
 10
21650.00
 20
22700.00
  0
SEQEND
  8
SHEET
  0
INSERT
  8
SHEET
  2
__JUNCTIONS__
 10
18850.00
 20
22550.00
  0
INSERT
  8
SHEET
  2
__JUNCTIONS__
 10
19650.00
 20
22550.00
  0
INSERT
  8
SHEET
  2
__JUNCTIONS__
 10
19900.00
 20
22550.00
  0
INSERT
  8
SHEET
  2
__JUNCTIONS__
 10
20450.00
 20
22550.00
  0
INSERT
  8
SHEET
  2
__JUNCTIONS__
 10
20250.00
 20
22550.00
  0
POLYLINE
  8
SHEET
 66
     1
 10
0.00
 20
0.00
 40
0.00
 41
0.00
  0
VERTEX
  8
SHEET
 10
18300.00
 20
23350.00
 40
0.00
 41
0.00
  0
VERTEX
  8
SHEET
 10
18300.00
 20
22550.00
  0
VERTEX
  8
SHEET
 10
18300.00
 20
22550.00
 40
0.00
 41
0.00
  0
VERTEX
  8
SHEET
 10
18850.00
 20
22550.00
 40
0.00
 41
0.00
  0
VERTEX
  8
SHEET
 10
18850.00
 20
22550.00
  0
SEQEND
  8
SHEET
  0
POLYLINE
  8
SHEET
 66
     1
 10
0.00
 20
0.00
 40
0.00
 41
0.00
  0
VERTEX
  8
SHEET
 10
18850.00
 20
22950.00
 40
0.00
 41
0.00
  0
VERTEX
  8
SHEET
 10
18850.00
 20
22550.00
 40
0.00
 41
0.00
  0
VERTEX
  8
SHEET
 10
18850.00
 20
22550.00
  0
SEQEND
  8
SHEET
  0
POLYLINE
  8
SHEET
 66
     1
 10
0.00
 20
0.00
 40
0.00
 41
0.00
  0
VERTEX
  8
SHEET
 10
18850.00
 20
22550.00
 40
0.00
 41
0.00
  0
VERTEX
  8
SHEET
 10
19650.00
 20
22550.00
 40
0.00
 41
0.00
  0
VERTEX
  8
SHEET
 10
19650.00
 20
22550.00
  0
SEQEND
  8
SHEET
  0
POLYLINE
  8
SHEET
 66
     1
 10
0.00
 20
0.00
 40
0.00
 41
0.00
  0
VERTEX
  8
SHEET
 10
20450.00
 20
22450.00
 40
0.00
 41
0.00
  0
VERTEX
  8
SHEET
 10
20450.00
 20
22550.00
 40
0.00
 41
0.00
  0
VERTEX
  8
SHEET
 10
20450.00
 20
22550.00
  0
SEQEND
  8
SHEET
  0
POLYLINE
  8
SHEET
 66
     1
 10
0.00
 20
0.00
 40
0.00
 41
0.00
  0
VERTEX
  8
SHEET
 10
19650.00
 20
22800.00
 40
0.00
 41
0.00
  0
VERTEX
  8
SHEET
 10
19650.00
 20
22550.00
 40
0.00
 41
0.00
  0
VERTEX
  8
SHEET
 10
19650.00
 20
22550.00
  0
SEQEND
  8
SHEET
  0
POLYLINE
  8
SHEET
 66
     1
 10
0.00
 20
0.00
 40
0.00
 41
0.00
  0
VERTEX
  8
SHEET
 10
19650.00
 20
22550.00
 40
0.00
 41
0.00
  0
VERTEX
  8
SHEET
 10
19900.00
 20
22550.00
 40
0.00
 41
0.00
  0
VERTEX
  8
SHEET
 10
19900.00
 20
22550.00
  0
SEQEND
  8
SHEET
  0
POLYLINE
  8
SHEET
 66
     1
 10
0.00
 20
0.00
 40
0.00
 41
0.00
  0
VERTEX
  8
SHEET
 10
19900.00
 20
22600.00
 40
0.00
 41
0.00
  0
VERTEX
  8
SHEET
 10
19900.00
 20
22550.00
 40
0.00
 41
0.00
  0
VERTEX
  8
SHEET
 10
19900.00
 20
22550.00
  0
SEQEND
  8
SHEET
  0
POLYLINE
  8
SHEET
 66
     1
 10
0.00
 20
0.00
 40
0.00
 41
0.00
  0
VERTEX
  8
SHEET
 10
20450.00
 20
22550.00
 40
0.00
 41
0.00
  0
VERTEX
  8
SHEET
 10
20250.00
 20
22550.00
 40
0.00
 41
0.00
  0
VERTEX
  8
SHEET
 10
20250.00
 20
22550.00
  0
SEQEND
  8
SHEET
  0
POLYLINE
  8
SHEET
 66
     1
 10
0.00
 20
0.00
 40
0.00
 41
0.00
  0
VERTEX
  8
SHEET
 10
20450.00
 20
22550.00
 40
0.00
 41
0.00
  0
VERTEX
  8
SHEET
 10
20700.00
 20
22550.00
 40
0.00
 41
0.00
  0
VERTEX
  8
SHEET
 10
20700.00
 20
22550.00
  0
SEQEND
  8
SHEET
  0
POLYLINE
  8
SHEET
 66
     1
 10
0.00
 20
0.00
 40
0.00
 41
0.00
  0
VERTEX
  8
SHEET
 10
20250.00
 20
22800.00
 40
0.00
 41
0.00
  0
VERTEX
  8
SHEET
 10
20250.00
 20
22550.00
 40
0.00
 41
0.00
  0
VERTEX
  8
SHEET
 10
20250.00
 20
22550.00
  0
SEQEND
  8
SHEET
  0
POLYLINE
  8
SHEET
 66
     1
 10
0.00
 20
0.00
 40
0.00
 41
0.00
  0
VERTEX
  8
SHEET
 10
20250.00
 20
22550.00
 40
0.00
 41
0.00
  0
VERTEX
  8
SHEET
 10
19900.00
 20
22550.00
 40
0.00
 41
0.00
  0
VERTEX
  8
SHEET
 10
19900.00
 20
22550.00
  0
SEQEND
  8
SHEET
  0
INSERT
  8
SHEET
  2
__JUNCTIONS__
 10
17250.00
 20
25350.00
  0
INSERT
  8
SHEET
  2
__JUNCTIONS__
 10
17250.00
 20
23350.00
  0
INSERT
  8
SHEET
  2
__JUNCTIONS__
 10
17250.00
 20
21400.00
  0
POLYLINE
  8
SHEET
 66
     1
 10
0.00
 20
0.00
 40
0.00
 41
0.00
  0
VERTEX
  8
SHEET
 10
17100.00
 20
25950.00
 40
0.00
 41
0.00
  0
VERTEX
  8
SHEET
 10
17250.00
 20
25950.00
  0
VERTEX
  8
SHEET
 10
17250.00
 20
25950.00
 40
0.00
 41
0.00
  0
VERTEX
  8
SHEET
 10
17250.00
 20
25350.00
 40
0.00
 41
0.00
  0
VERTEX
  8
SHEET
 10
17250.00
 20
25350.00
  0
SEQEND
  8
SHEET
  0
POLYLINE
  8
SHEET
 66
     1
 10
0.00
 20
0.00
 40
0.00
 41
0.00
  0
VERTEX
  8
SHEET
 10
17250.00
 20
25350.00
 40
0.00
 41
0.00
  0
VERTEX
  8
SHEET
 10
17900.00
 20
25350.00
 40
0.00
 41
0.00
  0
VERTEX
  8
SHEET
 10
17900.00
 20
25350.00
  0
SEQEND
  8
SHEET
  0
POLYLINE
  8
SHEET
 66
     1
 10
0.00
 20
0.00
 40
0.00
 41
0.00
  0
VERTEX
  8
SHEET
 10
17250.00
 20
25350.00
 40
0.00
 41
0.00
  0
VERTEX
  8
SHEET
 10
17250.00
 20
23350.00
 40
0.00
 41
0.00
  0
VERTEX
  8
SHEET
 10
17250.00
 20
23350.00
  0
SEQEND
  8
SHEET
  0
POLYLINE
  8
SHEET
 66
     1
 10
0.00
 20
0.00
 40
0.00
 41
0.00
  0
VERTEX
  8
SHEET
 10
17250.00
 20
23350.00
 40
0.00
 41
0.00
  0
VERTEX
  8
SHEET
 10
17900.00
 20
23350.00
 40
0.00
 41
0.00
  0
VERTEX
  8
SHEET
 10
17900.00
 20
23350.00
  0
SEQEND
  8
SHEET
  0
POLYLINE
  8
SHEET
 66
     1
 10
0.00
 20
0.00
 40
0.00
 41
0.00
  0
VERTEX
  8
SHEET
 10
17250.00
 20
23350.00
 40
0.00
 41
0.00
  0
VERTEX
  8
SHEET
 10
17250.00
 20
21400.00
 40
0.00
 41
0.00
  0
VERTEX
  8
SHEET
 10
17250.00
 20
21400.00
  0
SEQEND
  8
SHEET
  0
POLYLINE
  8
SHEET
 66
     1
 10
0.00
 20
0.00
 40
0.00
 41
0.00
  0
VERTEX
  8
SHEET
 10
17250.00
 20
21400.00
 40
0.00
 41
0.00
  0
VERTEX
  8
SHEET
 10
17850.00
 20
21400.00
 40
0.00
 41
0.00
  0
VERTEX
  8
SHEET
 10
17850.00
 20
21400.00
  0
SEQEND
  8
SHEET
  0
POLYLINE
  8
SHEET
 66
     1
 10
0.00
 20
0.00
 40
0.00
 41
0.00
  0
VERTEX
  8
SHEET
 10
17250.00
 20
21400.00
 40
0.00
 41
0.00
  0
VERTEX
  8
SHEET
 10
17250.00
 20
19450.00
  0
VERTEX
  8
SHEET
 10
17250.00
 20
19450.00
 40
0.00
 41
0.00
  0
VERTEX
  8
SHEET
 10
17850.00
 20
19450.00
 40
0.00
 41
0.00
  0
VERTEX
  8
SHEET
 10
17850.00
 20
19450.00
  0
SEQEND
  8
SHEET
  0
POLYLINE
  8
SHEET
 66
     1
 10
0.00
 20
0.00
 40
0.00
 41
0.00
  0
VERTEX
  8
SHEET
 10
17050.00
 20
21400.00
 40
0.00
 41
0.00
  0
VERTEX
  8
SHEET
 10
17250.00
 20
21400.00
 40
0.00
 41
0.00
  0
VERTEX
  8
SHEET
 10
17250.00
 20
21400.00
  0
SEQEND
  8
SHEET
  0
INSERT
  8
SHEET
  2
__JUNCTIONS__
 10
20050.00
 20
21950.00
  0
INSERT
  8
SHEET
  2
__JUNCTIONS__
 10
21000.00
 20
21650.00
  0
POLYLINE
  8
SHEET
 66
     1
 10
0.00
 20
0.00
 40
0.00
 41
0.00
  0
VERTEX
  8
SHEET
 10
20050.00
 20
21900.00
 40
0.00
 41
0.00
  0
VERTEX
  8
SHEET
 10
20050.00
 20
21950.00
 40
0.00
 41
0.00
  0
VERTEX
  8
SHEET
 10
20050.00
 20
21950.00
  0
SEQEND
  8
SHEET
  0
POLYLINE
  8
SHEET
 66
     1
 10
0.00
 20
0.00
 40
0.00
 41
0.00
  0
VERTEX
  8
SHEET
 10
18750.00
 20
21600.00
 40
0.00
 41
0.00
  0
VERTEX
  8
SHEET
 10
19200.00
 20
21600.00
  0
VERTEX
  8
SHEET
 10
19200.00
 20
21600.00
 40
0.00
 41
0.00
  0
VERTEX
  8
SHEET
 10
19200.00
 20
21950.00
 40
0.00
 41
0.00
  0
VERTEX
  8
SHEET
 10
19200.00
 20
21950.00
  0
SEQEND
  8
SHEET
  0
POLYLINE
  8
SHEET
 66
     1
 10
0.00
 20
0.00
 40
0.00
 41
0.00
  0
VERTEX
  8
SHEET
 10
20050.00
 20
21950.00
 40
0.00
 41
0.00
  0
VERTEX
  8
SHEET
 10
19200.00
 20
21950.00
 40
0.00
 41
0.00
  0
VERTEX
  8
SHEET
 10
19200.00
 20
21950.00
  0
SEQEND
  8
SHEET
  0
POLYLINE
  8
SHEET
 66
     1
 10
0.00
 20
0.00
 40
0.00
 41
0.00
  0
VERTEX
  8
SHEET
 10
20050.00
 20
21950.00
 40
0.00
 41
0.00
  0
VERTEX
  8
SHEET
 10
21000.00
 20
21950.00
  0
VERTEX
  8
SHEET
 10
21000.00
 20
21950.00
 40
0.00
 41
0.00
  0
VERTEX
  8
SHEET
 10
21000.00
 20
21650.00
 40
0.00
 41
0.00
  0
VERTEX
  8
SHEET
 10
21000.00
 20
21650.00
  0
SEQEND
  8
SHEET
  0
POLYLINE
  8
SHEET
 66
     1
 10
0.00
 20
0.00
 40
0.00
 41
0.00
  0
VERTEX
  8
SHEET
 10
21000.00
 20
21650.00
 40
0.00
 41
0.00
  0
VERTEX
  8
SHEET
 10
21400.00
 20
21650.00
 40
0.00
 41
0.00
  0
VERTEX
  8
SHEET
 10
21400.00
 20
21650.00
  0
SEQEND
  8
SHEET
  0
POLYLINE
  8
SHEET
 66
     1
 10
0.00
 20
0.00
 40
0.00
 41
0.00
  0
VERTEX
  8
SHEET
 10
21000.00
 20
21650.00
 40
0.00
 41
0.00
  0
VERTEX
  8
SHEET
 10
21000.00
 20
20650.00
  0
VERTEX
  8
SHEET
 10
21000.00
 20
20650.00
 40
0.00
 41
0.00
  0
VERTEX
  8
SHEET
 10
21500.00
 20
20650.00
 40
0.00
 41
0.00
  0
VERTEX
  8
SHEET
 10
21500.00
 20
20650.00
  0
SEQEND
  8
SHEET
  0
INSERT
  8
SHEET
  2
__JUNCTIONS__
 10
18750.00
 20
21100.00
  0
POLYLINE
  8
SHEET
 66
     1
 10
0.00
 20
0.00
 40
0.00
 41
0.00
  0
VERTEX
  8
SHEET
 10
18250.00
 20
21400.00
 40
0.00
 41
0.00
  0
VERTEX
  8
SHEET
 10
18450.00
 20
21400.00
  0
VERTEX
  8
SHEET
 10
18450.00
 20
21400.00
 40
0.00
 41
0.00
  0
VERTEX
  8
SHEET
 10
18450.00
 20
21100.00
  0
VERTEX
  8
SHEET
 10
18450.00
 20
21100.00
 40
0.00
 41
0.00
  0
VERTEX
  8
SHEET
 10
18750.00
 20
21100.00
 40
0.00
 41
0.00
  0
VERTEX
  8
SHEET
 10
18750.00
 20
21100.00
  0
SEQEND
  8
SHEET
  0
POLYLINE
  8
SHEET
 66
     1
 10
0.00
 20
0.00
 40
0.00
 41
0.00
  0
VERTEX
  8
SHEET
 10
18750.00
 20
21250.00
 40
0.00
 41
0.00
  0
VERTEX
  8
SHEET
 10
18750.00
 20
21100.00
 40
0.00
 41
0.00
  0
VERTEX
  8
SHEET
 10
18750.00
 20
21100.00
  0
SEQEND
  8
SHEET
  0
POLYLINE
  8
SHEET
 66
     1
 10
0.00
 20
0.00
 40
0.00
 41
0.00
  0
VERTEX
  8
SHEET
 10
18750.00
 20
21100.00
 40
0.00
 41
0.00
  0
VERTEX
  8
SHEET
 10
18900.00
 20
21100.00
 40
0.00
 41
0.00
  0
VERTEX
  8
SHEET
 10
18900.00
 20
21100.00
  0
SEQEND
  8
SHEET
  0
INSERT
  8
SHEET
  2
__JUNCTIONS__
 10
19350.00
 20
21100.00
  0
POLYLINE
  8
SHEET
 66
     1
 10
0.00
 20
0.00
 40
0.00
 41
0.00
  0
VERTEX
  8
SHEET
 10
19350.00
 20
21250.00
 40
0.00
 41
0.00
  0
VERTEX
  8
SHEET
 10
19350.00
 20
21100.00
 40
0.00
 41
0.00
  0
VERTEX
  8
SHEET
 10
19350.00
 20
21100.00
  0
SEQEND
  8
SHEET
  0
POLYLINE
  8
SHEET
 66
     1
 10
0.00
 20
0.00
 40
0.00
 41
0.00
  0
VERTEX
  8
SHEET
 10
19350.00
 20
21100.00
 40
0.00
 41
0.00
  0
VERTEX
  8
SHEET
 10
19250.00
 20
21100.00
 40
0.00
 41
0.00
  0
VERTEX
  8
SHEET
 10
19250.00
 20
21100.00
  0
SEQEND
  8
SHEET
  0
POLYLINE
  8
SHEET
 66
     1
 10
0.00
 20
0.00
 40
0.00
 41
0.00
  0
VERTEX
  8
SHEET
 10
19350.00
 20
21100.00
 40
0.00
 41
0.00
  0
VERTEX
  8
SHEET
 10
19350.00
 20
20850.00
 40
0.00
 41
0.00
  0
VERTEX
  8
SHEET
 10
19350.00
 20
20850.00
  0
SEQEND
  8
SHEET
  0
POLYLINE
  8
SHEET
 66
     1
 10
0.00
 20
0.00
 40
0.00
 41
0.00
  0
VERTEX
  8
SHEET
 10
20050.00
 20
21400.00
 40
0.00
 41
0.00
  0
VERTEX
  8
SHEET
 10
20050.00
 20
21250.00
  0
VERTEX
  8
SHEET
 10
20050.00
 20
21250.00
 40
0.00
 41
0.00
  0
VERTEX
  8
SHEET
 10
19350.00
 20
21250.00
 40
0.00
 41
0.00
  0
VERTEX
  8
SHEET
 10
19350.00
 20
21250.00
  0
SEQEND
  8
SHEET
  0
INSERT
  8
SHEET
  2
__JUNCTIONS__
 10
18750.00
 20
19150.00
  0
POLYLINE
  8
SHEET
 66
     1
 10
0.00
 20
0.00
 40
0.00
 41
0.00
  0
VERTEX
  8
SHEET
 10
18250.00
 20
19450.00
 40
0.00
 41
0.00
  0
VERTEX
  8
SHEET
 10
18450.00
 20
19450.00
  0
VERTEX
  8
SHEET
 10
18450.00
 20
19450.00
 40
0.00
 41
0.00
  0
VERTEX
  8
SHEET
 10
18450.00
 20
19150.00
  0
VERTEX
  8
SHEET
 10
18450.00
 20
19150.00
 40
0.00
 41
0.00
  0
VERTEX
  8
SHEET
 10
18750.00
 20
19150.00
 40
0.00
 41
0.00
  0
VERTEX
  8
SHEET
 10
18750.00
 20
19150.00
  0
SEQEND
  8
SHEET
  0
POLYLINE
  8
SHEET
 66
     1
 10
0.00
 20
0.00
 40
0.00
 41
0.00
  0
VERTEX
  8
SHEET
 10
18750.00
 20
19300.00
 40
0.00
 41
0.00
  0
VERTEX
  8
SHEET
 10
18750.00
 20
19150.00
 40
0.00
 41
0.00
  0
VERTEX
  8
SHEET
 10
18750.00
 20
19150.00
  0
SEQEND
  8
SHEET
  0
POLYLINE
  8
SHEET
 66
     1
 10
0.00
 20
0.00
 40
0.00
 41
0.00
  0
VERTEX
  8
SHEET
 10
18750.00
 20
19150.00
 40
0.00
 41
0.00
  0
VERTEX
  8
SHEET
 10
18900.00
 20
19150.00
 40
0.00
 41
0.00
  0
VERTEX
  8
SHEET
 10
18900.00
 20
19150.00
  0
SEQEND
  8
SHEET
  0
INSERT
  8
SHEET
  2
__JUNCTIONS__
 10
19350.00
 20
19150.00
  0
INSERT
  8
SHEET
  2
__JUNCTIONS__
 10
19700.00
 20
19150.00
  0
POLYLINE
  8
SHEET
 66
     1
 10
0.00
 20
0.00
 40
0.00
 41
0.00
  0
VERTEX
  8
SHEET
 10
19350.00
 20
19300.00
 40
0.00
 41
0.00
  0
VERTEX
  8
SHEET
 10
19350.00
 20
19150.00
 40
0.00
 41
0.00
  0
VERTEX
  8
SHEET
 10
19350.00
 20
19150.00
  0
SEQEND
  8
SHEET
  0
POLYLINE
  8
SHEET
 66
     1
 10
0.00
 20
0.00
 40
0.00
 41
0.00
  0
VERTEX
  8
SHEET
 10
19350.00
 20
19150.00
 40
0.00
 41
0.00
  0
VERTEX
  8
SHEET
 10
19250.00
 20
19150.00
 40
0.00
 41
0.00
  0
VERTEX
  8
SHEET
 10
19250.00
 20
19150.00
  0
SEQEND
  8
SHEET
  0
POLYLINE
  8
SHEET
 66
     1
 10
0.00
 20
0.00
 40
0.00
 41
0.00
  0
VERTEX
  8
SHEET
 10
19350.00
 20
19150.00
 40
0.00
 41
0.00
  0
VERTEX
  8
SHEET
 10
19350.00
 20
18900.00
 40
0.00
 41
0.00
  0
VERTEX
  8
SHEET
 10
19350.00
 20
18900.00
  0
SEQEND
  8
SHEET
  0
POLYLINE
  8
SHEET
 66
     1
 10
0.00
 20
0.00
 40
0.00
 41
0.00
  0
VERTEX
  8
SHEET
 10
19700.00
 20
19300.00
 40
0.00
 41
0.00
  0
VERTEX
  8
SHEET
 10
19700.00
 20
19150.00
 40
0.00
 41
0.00
  0
VERTEX
  8
SHEET
 10
19700.00
 20
19150.00
  0
SEQEND
  8
SHEET
  0
POLYLINE
  8
SHEET
 66
     1
 10
0.00
 20
0.00
 40
0.00
 41
0.00
  0
VERTEX
  8
SHEET
 10
19700.00
 20
19150.00
 40
0.00
 41
0.00
  0
VERTEX
  8
SHEET
 10
19350.00
 20
19150.00
 40
0.00
 41
0.00
  0
VERTEX
  8
SHEET
 10
19350.00
 20
19150.00
  0
SEQEND
  8
SHEET
  0
POLYLINE
  8
SHEET
 66
     1
 10
0.00
 20
0.00
 40
0.00
 41
0.00
  0
VERTEX
  8
SHEET
 10
20200.00
 20
19550.00
 40
0.00
 41
0.00
  0
VERTEX
  8
SHEET
 10
20200.00
 20
19150.00
  0
VERTEX
  8
SHEET
 10
20200.00
 20
19150.00
 40
0.00
 41
0.00
  0
VERTEX
  8
SHEET
 10
19700.00
 20
19150.00
 40
0.00
 41
0.00
  0
VERTEX
  8
SHEET
 10
19700.00
 20
19150.00
  0
SEQEND
  8
SHEET
  0
INSERT
  8
SHEET
  2
__JUNCTIONS__
 10
23350.00
 20
25050.00
  0
POLYLINE
  8
SHEET
 66
     1
 10
0.00
 20
0.00
 40
0.00
 41
0.00
  0
VERTEX
  8
SHEET
 10
23150.00
 20
25050.00
 40
0.00
 41
0.00
  0
VERTEX
  8
SHEET
 10
23350.00
 20
25050.00
 40
0.00
 41
0.00
  0
VERTEX
  8
SHEET
 10
23350.00
 20
25050.00
  0
SEQEND
  8
SHEET
  0
POLYLINE
  8
SHEET
 66
     1
 10
0.00
 20
0.00
 40
0.00
 41
0.00
  0
VERTEX
  8
SHEET
 10
23550.00
 20
25650.00
 40
0.00
 41
0.00
  0
VERTEX
  8
SHEET
 10
23350.00
 20
25650.00
  0
VERTEX
  8
SHEET
 10
23350.00
 20
25650.00
 40
0.00
 41
0.00
  0
VERTEX
  8
SHEET
 10
23350.00
 20
25050.00
 40
0.00
 41
0.00
  0
VERTEX
  8
SHEET
 10
23350.00
 20
25050.00
  0
SEQEND
  8
SHEET
  0
POLYLINE
  8
SHEET
 66
     1
 10
0.00
 20
0.00
 40
0.00
 41
0.00
  0
VERTEX
  8
SHEET
 10
23350.00
 20
25050.00
 40
0.00
 41
0.00
  0
VERTEX
  8
SHEET
 10
23650.00
 20
25050.00
 40
0.00
 41
0.00
  0
VERTEX
  8
SHEET
 10
23650.00
 20
25050.00
  0
SEQEND
  8
SHEET
  0
INSERT
  8
SHEET
  2
__JUNCTIONS__
 10
24350.00
 20
25750.00
  0
POLYLINE
  8
SHEET
 66
     1
 10
0.00
 20
0.00
 40
0.00
 41
0.00
  0
VERTEX
  8
SHEET
 10
24150.00
 20
25050.00
 40
0.00
 41
0.00
  0
VERTEX
  8
SHEET
 10
24350.00
 20
25050.00
  0
VERTEX
  8
SHEET
 10
24350.00
 20
25050.00
 40
0.00
 41
0.00
  0
VERTEX
  8
SHEET
 10
24350.00
 20
25750.00
 40
0.00
 41
0.00
  0
VERTEX
  8
SHEET
 10
24350.00
 20
25750.00
  0
SEQEND
  8
SHEET
  0
POLYLINE
  8
SHEET
 66
     1
 10
0.00
 20
0.00
 40
0.00
 41
0.00
  0
VERTEX
  8
SHEET
 10
24250.00
 20
25750.00
 40
0.00
 41
0.00
  0
VERTEX
  8
SHEET
 10
24350.00
 20
25750.00
 40
0.00
 41
0.00
  0
VERTEX
  8
SHEET
 10
24350.00
 20
25750.00
  0
SEQEND
  8
SHEET
  0
POLYLINE
  8
SHEET
 66
     1
 10
0.00
 20
0.00
 40
0.00
 41
0.00
  0
VERTEX
  8
SHEET
 10
24350.00
 20
25750.00
 40
0.00
 41
0.00
  0
VERTEX
  8
SHEET
 10
24500.00
 20
25750.00
 40
0.00
 41
0.00
  0
VERTEX
  8
SHEET
 10
24500.00
 20
25750.00
  0
SEQEND
  8
SHEET
  0
INSERT
  8
SHEET
  2
__JUNCTIONS__
 10
24350.00
 20
23950.00
  0
POLYLINE
  8
SHEET
 66
     1
 10
0.00
 20
0.00
 40
0.00
 41
0.00
  0
VERTEX
  8
SHEET
 10
24250.00
 20
23050.00
 40
0.00
 41
0.00
  0
VERTEX
  8
SHEET
 10
24350.00
 20
23050.00
  0
VERTEX
  8
SHEET
 10
24350.00
 20
23050.00
 40
0.00
 41
0.00
  0
VERTEX
  8
SHEET
 10
24350.00
 20
23950.00
 40
0.00
 41
0.00
  0
VERTEX
  8
SHEET
 10
24350.00
 20
23950.00
  0
SEQEND
  8
SHEET
  0
POLYLINE
  8
SHEET
 66
     1
 10
0.00
 20
0.00
 40
0.00
 41
0.00
  0
VERTEX
  8
SHEET
 10
24100.00
 20
23950.00
 40
0.00
 41
0.00
  0
VERTEX
  8
SHEET
 10
24350.00
 20
23950.00
 40
0.00
 41
0.00
  0
VERTEX
  8
SHEET
 10
24350.00
 20
23950.00
  0
SEQEND
  8
SHEET
  0
POLYLINE
  8
SHEET
 66
     1
 10
0.00
 20
0.00
 40
0.00
 41
0.00
  0
VERTEX
  8
SHEET
 10
24350.00
 20
23950.00
 40
0.00
 41
0.00
  0
VERTEX
  8
SHEET
 10
24550.00
 20
23950.00
 40
0.00
 41
0.00
  0
VERTEX
  8
SHEET
 10
24550.00
 20
23950.00
  0
SEQEND
  8
SHEET
  0
INSERT
  8
SHEET
  2
__JUNCTIONS__
 10
23350.00
 20
23050.00
  0
POLYLINE
  8
SHEET
 66
     1
 10
0.00
 20
0.00
 40
0.00
 41
0.00
  0
VERTEX
  8
SHEET
 10
23750.00
 20
23050.00
 40
0.00
 41
0.00
  0
VERTEX
  8
SHEET
 10
23350.00
 20
23050.00
 40
0.00
 41
0.00
  0
VERTEX
  8
SHEET
 10
23350.00
 20
23050.00
  0
SEQEND
  8
SHEET
  0
POLYLINE
  8
SHEET
 66
     1
 10
0.00
 20
0.00
 40
0.00
 41
0.00
  0
VERTEX
  8
SHEET
 10
23400.00
 20
23850.00
 40
0.00
 41
0.00
  0
VERTEX
  8
SHEET
 10
23350.00
 20
23850.00
  0
VERTEX
  8
SHEET
 10
23350.00
 20
23850.00
 40
0.00
 41
0.00
  0
VERTEX
  8
SHEET
 10
23350.00
 20
23050.00
 40
0.00
 41
0.00
  0
VERTEX
  8
SHEET
 10
23350.00
 20
23050.00
  0
SEQEND
  8
SHEET
  0
POLYLINE
  8
SHEET
 66
     1
 10
0.00
 20
0.00
 40
0.00
 41
0.00
  0
VERTEX
  8
SHEET
 10
23350.00
 20
23050.00
 40
0.00
 41
0.00
  0
VERTEX
  8
SHEET
 10
23200.00
 20
23050.00
 40
0.00
 41
0.00
  0
VERTEX
  8
SHEET
 10
23200.00
 20
23050.00
  0
SEQEND
  8
SHEET
  0
POLYLINE
  8
SHEET
 66
     1
 10
0.00
 20
0.00
 40
0.00
 41
0.00
  0
VERTEX
  8
SHEET
 10
23950.00
 20
21650.00
 40
0.00
 41
0.00
  0
VERTEX
  8
SHEET
 10
24900.00
 20
21650.00
 40
0.00
 41
0.00
  0
VERTEX
  8
SHEET
 10
24900.00
 20
21650.00
  0
SEQEND
  8
SHEET
  0
INSERT
  8
SHEET
  2
__JUNCTIONS__
 10
25050.00
 20
20650.00
  0
POLYLINE
  8
SHEET
 66
     1
 10
0.00
 20
0.00
 40
0.00
 41
0.00
  0
VERTEX
  8
SHEET
 10
24000.00
 20
20650.00
 40
0.00
 41
0.00
  0
VERTEX
  8
SHEET
 10
25050.00
 20
20650.00
 40
0.00
 41
0.00
  0
VERTEX
  8
SHEET
 10
25050.00
 20
20650.00
  0
SEQEND
  8
SHEET
  0
POLYLINE
  8
SHEET
 66
     1
 10
0.00
 20
0.00
 40
0.00
 41
0.00
  0
VERTEX
  8
SHEET
 10
25050.00
 20
20650.00
 40
0.00
 41
0.00
  0
VERTEX
  8
SHEET
 10
25250.00
 20
20650.00
 40
0.00
 41
0.00
  0
VERTEX
  8
SHEET
 10
25250.00
 20
20650.00
  0
SEQEND
  8
SHEET
  0
POLYLINE
  8
SHEET
 66
     1
 10
0.00
 20
0.00
 40
0.00
 41
0.00
  0
VERTEX
  8
SHEET
 10
25050.00
 20
20650.00
 40
0.00
 41
0.00
  0
VERTEX
  8
SHEET
 10
25050.00
 20
21100.00
  0
VERTEX
  8
SHEET
 10
25050.00
 20
21100.00
 40
0.00
 41
0.00
  0
VERTEX
  8
SHEET
 10
25800.00
 20
21100.00
  0
VERTEX
  8
SHEET
 10
25800.00
 20
21100.00
 40
0.00
 41
0.00
  0
VERTEX
  8
SHEET
 10
25800.00
 20
20700.00
 40
0.00
 41
0.00
  0
VERTEX
  8
SHEET
 10
25800.00
 20
20700.00
  0
SEQEND
  8
SHEET
  0
INSERT
  8
SHEET
  2
__JUNCTIONS__
 10
25450.00
 20
20100.00
  0
POLYLINE
  8
SHEET
 66
     1
 10
0.00
 20
0.00
 40
0.00
 41
0.00
  0
VERTEX
  8
SHEET
 10
24700.00
 20
20100.00
 40
0.00
 41
0.00
  0
VERTEX
  8
SHEET
 10
25450.00
 20
20100.00
 40
0.00
 41
0.00
  0
VERTEX
  8
SHEET
 10
25450.00
 20
20100.00
  0
SEQEND
  8
SHEET
  0
POLYLINE
  8
SHEET
 66
     1
 10
0.00
 20
0.00
 40
0.00
 41
0.00
  0
VERTEX
  8
SHEET
 10
24000.00
 20
20250.00
 40
0.00
 41
0.00
  0
VERTEX
  8
SHEET
 10
24700.00
 20
20250.00
  0
VERTEX
  8
SHEET
 10
24700.00
 20
20250.00
 40
0.00
 41
0.00
  0
VERTEX
  8
SHEET
 10
24700.00
 20
20100.00
 40
0.00
 41
0.00
  0
VERTEX
  8
SHEET
 10
24700.00
 20
20100.00
  0
SEQEND
  8
SHEET
  0
POLYLINE
  8
SHEET
 66
     1
 10
0.00
 20
0.00
 40
0.00
 41
0.00
  0
VERTEX
  8
SHEET
 10
26000.00
 20
20450.00
 40
0.00
 41
0.00
  0
VERTEX
  8
SHEET
 10
26000.00
 20
20100.00
  0
VERTEX
  8
SHEET
 10
26000.00
 20
20100.00
 40
0.00
 41
0.00
  0
VERTEX
  8
SHEET
 10
25450.00
 20
20100.00
 40
0.00
 41
0.00
  0
VERTEX
  8
SHEET
 10
25450.00
 20
20100.00
  0
SEQEND
  8
SHEET
  0
POLYLINE
  8
SHEET
 66
     1
 10
0.00
 20
0.00
 40
0.00
 41
0.00
  0
VERTEX
  8
SHEET
 10
25450.00
 20
20100.00
 40
0.00
 41
0.00
  0
VERTEX
  8
SHEET
 10
25450.00
 20
20400.00
 40
0.00
 41
0.00
  0
VERTEX
  8
SHEET
 10
25450.00
 20
20400.00
  0
SEQEND
  8
SHEET
  0
POLYLINE
  8
SHEET
 66
     1
 10
0.00
 20
0.00
 40
0.00
 41
0.00
  0
VERTEX
  8
SHEET
 10
24600.00
 20
21150.00
 40
0.00
 41
0.00
  0
VERTEX
  8
SHEET
 10
25100.00
 20
21150.00
  0
VERTEX
  8
SHEET
 10
25100.00
 20
21150.00
 40
0.00
 41
0.00
  0
VERTEX
  8
SHEET
 10
25100.00
 20
21400.00
 40
0.00
 41
0.00
  0
VERTEX
  8
SHEET
 10
25100.00
 20
21400.00
  0
SEQEND
  8
SHEET
  0
POLYLINE
  8
SHEET
 66
     1
 10
0.00
 20
0.00
 40
0.00
 41
0.00
  0
VERTEX
  8
SHEET
 10
23950.00
 20
21250.00
 40
0.00
 41
0.00
  0
VERTEX
  8
SHEET
 10
24600.00
 20
21250.00
  0
VERTEX
  8
SHEET
 10
24600.00
 20
21250.00
 40
0.00
 41
0.00
  0
VERTEX
  8
SHEET
 10
24600.00
 20
21150.00
 40
0.00
 41
0.00
  0
VERTEX
  8
SHEET
 10
24600.00
 20
21150.00
  0
SEQEND
  8
SHEET
  0
POLYLINE
  8
SHEET
 66
     1
 10
0.00
 20
0.00
 40
0.00
 41
0.00
  0
VERTEX
  8
SHEET
 10
23350.00
 20
20650.00
 40
0.00
 41
0.00
  0
VERTEX
  8
SHEET
 10
23600.00
 20
20650.00
 40
0.00
 41
0.00
  0
VERTEX
  8
SHEET
 10
23600.00
 20
20650.00
  0
SEQEND
  8
SHEET
  0
POLYLINE
  8
SHEET
 66
     1
 10
0.00
 20
0.00
 40
0.00
 41
0.00
  0
VERTEX
  8
SHEET
 10
22500.00
 20
20250.00
 40
0.00
 41
0.00
  0
VERTEX
  8
SHEET
 10
22550.00
 20
20250.00
 40
0.00
 41
0.00
  0
VERTEX
  8
SHEET
 10
22550.00
 20
20250.00
  0
SEQEND
  8
SHEET
  0
POLYLINE
  8
SHEET
 66
     1
 10
0.00
 20
0.00
 40
0.00
 41
0.00
  0
VERTEX
  8
SHEET
 10
22400.00
 20
21250.00
 40
0.00
 41
0.00
  0
VERTEX
  8
SHEET
 10
22450.00
 20
21250.00
 40
0.00
 41
0.00
  0
VERTEX
  8
SHEET
 10
22450.00
 20
21250.00
  0
SEQEND
  8
SHEET
  0
POLYLINE
  8
SHEET
 66
     1
 10
0.00
 20
0.00
 40
0.00
 41
0.00
  0
VERTEX
  8
SHEET
 10
23250.00
 20
21650.00
 40
0.00
 41
0.00
  0
VERTEX
  8
SHEET
 10
23550.00
 20
21650.00
 40
0.00
 41
0.00
  0
VERTEX
  8
SHEET
 10
23550.00
 20
21650.00
  0
SEQEND
  8
SHEET
  0
POLYLINE
  8
SHEET
 66
     1
 10
0.00
 20
0.00
 40
0.00
 41
0.00
  0
VERTEX
  8
SHEET
 10
18300.00
 20
25750.00
 40
0.00
 41
0.00
  0
VERTEX
  8
SHEET
 10
18500.00
 20
25750.00
 40
0.00
 41
0.00
  0
VERTEX
  8
SHEET
 10
18500.00
 20
25750.00
  0
SEQEND
  8
SHEET
  0
POLYLINE
  8
SHEET
 66
     1
 10
0.00
 20
0.00
 40
0.00
 41
0.00
  0
VERTEX
  8
SHEET
 10
15400.00
 20
26650.00
 40
0.00
 41
0.00
  0
VERTEX
  8
SHEET
 10
15800.00
 20
26650.00
  0
VERTEX
  8
SHEET
 10
15800.00
 20
26650.00
 40
0.00
 41
0.00
  0
VERTEX
  8
SHEET
 10
15800.00
 20
26750.00
  0
VERTEX
  8
SHEET
 10
15800.00
 20
26750.00
 40
0.00
 41
0.00
  0
VERTEX
  8
SHEET
 10
16000.00
 20
26750.00
 40
0.00
 41
0.00
  0
VERTEX
  8
SHEET
 10
16000.00
 20
26750.00
  0
SEQEND
  8
SHEET
  0
POLYLINE
  8
SHEET
 66
     1
 10
0.00
 20
0.00
 40
0.00
 41
0.00
  0
VERTEX
  8
SHEET
 10
16400.00
 20
26750.00
 40
0.00
 41
0.00
  0
VERTEX
  8
SHEET
 10
16700.00
 20
26750.00
 40
0.00
 41
0.00
  0
VERTEX
  8
SHEET
 10
16700.00
 20
26750.00
  0
SEQEND
  8
SHEET
  0
POLYLINE
  8
SHEET
 66
     1
 10
0.00
 20
0.00
 40
0.00
 41
0.00
  0
VERTEX
  8
SHEET
 10
15400.00
 20
26550.00
 40
0.00
 41
0.00
  0
VERTEX
  8
SHEET
 10
15800.00
 20
26550.00
  0
VERTEX
  8
SHEET
 10
15800.00
 20
26550.00
 40
0.00
 41
0.00
  0
VERTEX
  8
SHEET
 10
15800.00
 20
26150.00
  0
VERTEX
  8
SHEET
 10
15800.00
 20
26150.00
 40
0.00
 41
0.00
  0
VERTEX
  8
SHEET
 10
16700.00
 20
26150.00
 40
0.00
 41
0.00
  0
VERTEX
  8
SHEET
 10
16700.00
 20
26150.00
  0
SEQEND
  8
SHEET
  0
POLYLINE
  8
SHEET
 66
     1
 10
0.00
 20
0.00
 40
0.00
 41
0.00
  0
VERTEX
  8
SHEET
 10
16350.00
 20
24700.00
 40
0.00
 41
0.00
  0
VERTEX
  8
SHEET
 10
16350.00
 20
24250.00
  0
VERTEX
  8
SHEET
 10
16350.00
 20
24250.00
 40
0.00
 41
0.00
  0
VERTEX
  8
SHEET
 10
17600.00
 20
24250.00
  0
VERTEX
  8
SHEET
 10
17600.00
 20
24250.00
 40
0.00
 41
0.00
  0
VERTEX
  8
SHEET
 10
17600.00
 20
25750.00
  0
VERTEX
  8
SHEET
 10
17600.00
 20
25750.00
 40
0.00
 41
0.00
  0
VERTEX
  8
SHEET
 10
17900.00
 20
25750.00
 40
0.00
 41
0.00
  0
VERTEX
  8
SHEET
 10
17900.00
 20
25750.00
  0
SEQEND
  8
SHEET
  0
POLYLINE
  8
SHEET
 66
     1
 10
0.00
 20
0.00
 40
0.00
 41
0.00
  0
VERTEX
  8
SHEET
 10
17900.00
 20
23750.00
 40
0.00
 41
0.00
  0
VERTEX
  8
SHEET
 10
17100.00
 20
23750.00
  0
VERTEX
  8
SHEET
 10
17100.00
 20
23750.00
 40
0.00
 41
0.00
  0
VERTEX
  8
SHEET
 10
17100.00
 20
23200.00
  0
VERTEX
  8
SHEET
 10
17100.00
 20
23200.00
 40
0.00
 41
0.00
  0
VERTEX
  8
SHEET
 10
16350.00
 20
23200.00
  0
VERTEX
  8
SHEET
 10
16350.00
 20
23200.00
 40
0.00
 41
0.00
  0
VERTEX
  8
SHEET
 10
16350.00
 20
23800.00
 40
0.00
 41
0.00
  0
VERTEX
  8
SHEET
 10
16350.00
 20
23800.00
  0
SEQEND
  8
SHEET
  0
POLYLINE
  8
SHEET
 66
     1
 10
0.00
 20
0.00
 40
0.00
 41
0.00
  0
VERTEX
  8
SHEET
 10
18300.00
 20
23750.00
 40
0.00
 41
0.00
  0
VERTEX
  8
SHEET
 10
18550.00
 20
23750.00
 40
0.00
 41
0.00
  0
VERTEX
  8
SHEET
 10
18550.00
 20
23750.00
  0
SEQEND
  8
SHEET
  0
INSERT
  8
SHEET
  2
__JUNCTIONS__
 10
22850.00
 20
25250.00
  0
POLYLINE
  8
SHEET
 66
     1
 10
0.00
 20
0.00
 40
0.00
 41
0.00
  0
VERTEX
  8
SHEET
 10
22650.00
 20
26100.00
 40
0.00
 41
0.00
  0
VERTEX
  8
SHEET
 10
22650.00
 20
25800.00
  0
VERTEX
  8
SHEET
 10
22650.00
 20
25800.00
 40
0.00
 41
0.00
  0
VERTEX
  8
SHEET
 10
22850.00
 20
25800.00
  0
VERTEX
  8
SHEET
 10
22850.00
 20
25800.00
 40
0.00
 41
0.00
  0
VERTEX
  8
SHEET
 10
22850.00
 20
25250.00
 40
0.00
 41
0.00
  0
VERTEX
  8
SHEET
 10
22850.00
 20
25250.00
  0
SEQEND
  8
SHEET
  0
POLYLINE
  8
SHEET
 66
     1
 10
0.00
 20
0.00
 40
0.00
 41
0.00
  0
VERTEX
  8
SHEET
 10
22850.00
 20
25250.00
 40
0.00
 41
0.00
  0
VERTEX
  8
SHEET
 10
22650.00
 20
25250.00
  0
VERTEX
  8
SHEET
 10
22650.00
 20
25250.00
 40
0.00
 41
0.00
  0
VERTEX
  8
SHEET
 10
22650.00
 20
25050.00
 40
0.00
 41
0.00
  0
VERTEX
  8
SHEET
 10
22650.00
 20
25050.00
  0
SEQEND
  8
SHEET
  0
POLYLINE
  8
SHEET
 66
     1
 10
0.00
 20
0.00
 40
0.00
 41
0.00
  0
VERTEX
  8
SHEET
 10
22850.00
 20
25250.00
 40
0.00
 41
0.00
  0
VERTEX
  8
SHEET
 10
29900.00
 20
25250.00
  0
VERTEX
  8
SHEET
 10
29900.00
 20
25250.00
 40
0.00
 41
0.00
  0
VERTEX
  8
SHEET
 10
29900.00
 20
27825.00
  0
VERTEX
  8
SHEET
 10
29900.00
 20
27825.00
 40
0.00
 41
0.00
  0
VERTEX
  8
SHEET
 10
29275.00
 20
27825.00
 40
0.00
 41
0.00
  0
VERTEX
  8
SHEET
 10
29275.00
 20
27825.00
  0
SEQEND
  8
SHEET
  0
INSERT
  8
SHEET
  2
__JUNCTIONS__
 10
22700.00
 20
23300.00
  0
POLYLINE
  8
SHEET
 66
     1
 10
0.00
 20
0.00
 40
0.00
 41
0.00
  0
VERTEX
  8
SHEET
 10
22550.00
 20
23950.00
 40
0.00
 41
0.00
  0
VERTEX
  8
SHEET
 10
22700.00
 20
23950.00
  0
VERTEX
  8
SHEET
 10
22700.00
 20
23950.00
 40
0.00
 41
0.00
  0
VERTEX
  8
SHEET
 10
22700.00
 20
23300.00
 40
0.00
 41
0.00
  0
VERTEX
  8
SHEET
 10
22700.00
 20
23300.00
  0
SEQEND
  8
SHEET
  0
POLYLINE
  8
SHEET
 66
     1
 10
0.00
 20
0.00
 40
0.00
 41
0.00
  0
VERTEX
  8
SHEET
 10
22700.00
 20
23300.00
 40
0.00
 41
0.00
  0
VERTEX
  8
SHEET
 10
22700.00
 20
23050.00
 40
0.00
 41
0.00
  0
VERTEX
  8
SHEET
 10
22700.00
 20
23050.00
  0
SEQEND
  8
SHEET
  0
POLYLINE
  8
SHEET
 66
     1
 10
0.00
 20
0.00
 40
0.00
 41
0.00
  0
VERTEX
  8
SHEET
 10
22700.00
 20
23300.00
 40
0.00
 41
0.00
  0
VERTEX
  8
SHEET
 10
29800.00
 20
23300.00
  0
VERTEX
  8
SHEET
 10
29800.00
 20
23300.00
 40
0.00
 41
0.00
  0
VERTEX
  8
SHEET
 10
29800.00
 20
27675.00
  0
VERTEX
  8
SHEET
 10
29800.00
 20
27675.00
 40
0.00
 41
0.00
  0
VERTEX
  8
SHEET
 10
29275.00
 20
27675.00
 40
0.00
 41
0.00
  0
VERTEX
  8
SHEET
 10
29275.00
 20
27675.00
  0
SEQEND
  8
SHEET
  0
POLYLINE
  8
SHEET
 66
     1
 10
0.00
 20
0.00
 40
0.00
 41
0.00
  0
VERTEX
  8
SHEET
 10
16650.00
 20
23650.00
 40
0.00
 41
0.00
  0
VERTEX
  8
SHEET
 10
16850.00
 20
23650.00
  0
VERTEX
  8
SHEET
 10
16850.00
 20
23650.00
 40
0.00
 41
0.00
  0
VERTEX
  8
SHEET
 10
16850.00
 20
23550.00
 40
0.00
 41
0.00
  0
VERTEX
  8
SHEET
 10
16850.00
 20
23550.00
  0
SEQEND
  8
SHEET
  0
POLYLINE
  8
SHEET
 66
     1
 10
0.00
 20
0.00
 40
0.00
 41
0.00
  0
VERTEX
  8
SHEET
 10
15400.00
 20
26450.00
 40
0.00
 41
0.00
  0
VERTEX
  8
SHEET
 10
15700.00
 20
26450.00
  0
VERTEX
  8
SHEET
 10
15700.00
 20
26450.00
 40
0.00
 41
0.00
  0
VERTEX
  8
SHEET
 10
15700.00
 20
25850.00
  0
VERTEX
  8
SHEET
 10
15700.00
 20
25850.00
 40
0.00
 41
0.00
  0
VERTEX
  8
SHEET
 10
16150.00
 20
25850.00
 40
0.00
 41
0.00
  0
VERTEX
  8
SHEET
 10
16150.00
 20
25850.00
  0
SEQEND
  8
SHEET
  0
POLYLINE
  8
SHEET
 66
     1
 10
0.00
 20
0.00
 40
0.00
 41
0.00
  0
VERTEX
  8
SHEET
 10
25250.00
 20
27450.00
 40
0.00
 41
0.00
  0
VERTEX
  8
SHEET
 10
25950.00
 20
27450.00
 40
0.00
 41
0.00
  0
VERTEX
  8
SHEET
 10
25950.00
 20
27450.00
  0
SEQEND
  8
SHEET
  0
POLYLINE
  8
SHEET
 66
     1
 10
0.00
 20
0.00
 40
0.00
 41
0.00
  0
VERTEX
  8
SHEET
 10
24550.00
 20
27550.00
 40
0.00
 41
0.00
  0
VERTEX
  8
SHEET
 10
24550.00
 20
27950.00
  0
VERTEX
  8
SHEET
 10
24550.00
 20
27950.00
 40
0.00
 41
0.00
  0
VERTEX
  8
SHEET
 10
25250.00
 20
27950.00
  0
VERTEX
  8
SHEET
 10
25250.00
 20
27950.00
 40
0.00
 41
0.00
  0
VERTEX
  8
SHEET
 10
25250.00
 20
27450.00
 40
0.00
 41
0.00
  0
VERTEX
  8
SHEET
 10
25250.00
 20
27450.00
  0
SEQEND
  8
SHEET
  0
POLYLINE
  8
SHEET
 66
     1
 10
0.00
 20
0.00
 40
0.00
 41
0.00
  0
VERTEX
  8
SHEET
 10
25950.00
 20
26600.00
 40
0.00
 41
0.00
  0
VERTEX
  8
SHEET
 10
25250.00
 20
26600.00
 40
0.00
 41
0.00
  0
VERTEX
  8
SHEET
 10
25250.00
 20
26600.00
  0
SEQEND
  8
SHEET
  0
POLYLINE
  8
SHEET
 66
     1
 10
0.00
 20
0.00
 40
0.00
 41
0.00
  0
VERTEX
  8
SHEET
 10
24550.00
 20
26700.00
 40
0.00
 41
0.00
  0
VERTEX
  8
SHEET
 10
24550.00
 20
27000.00
  0
VERTEX
  8
SHEET
 10
24550.00
 20
27000.00
 40
0.00
 41
0.00
  0
VERTEX
  8
SHEET
 10
25250.00
 20
27000.00
  0
VERTEX
  8
SHEET
 10
25250.00
 20
27000.00
 40
0.00
 41
0.00
  0
VERTEX
  8
SHEET
 10
25250.00
 20
26600.00
 40
0.00
 41
0.00
  0
VERTEX
  8
SHEET
 10
25250.00
 20
26600.00
  0
SEQEND
  8
SHEET
  0
POLYLINE
  8
SHEET
 66
     1
 10
0.00
 20
0.00
 40
0.00
 41
0.00
  0
VERTEX
  8
SHEET
 10
24400.00
 20
26500.00
 40
0.00
 41
0.00
  0
VERTEX
  8
SHEET
 10
24550.00
 20
26500.00
 40
0.00
 41
0.00
  0
VERTEX
  8
SHEET
 10
24550.00
 20
26500.00
  0
SEQEND
  8
SHEET
  0
POLYLINE
  8
SHEET
 66
     1
 10
0.00
 20
0.00
 40
0.00
 41
0.00
  0
VERTEX
  8
SHEET
 10
24400.00
 20
27350.00
 40
0.00
 41
0.00
  0
VERTEX
  8
SHEET
 10
24550.00
 20
27350.00
 40
0.00
 41
0.00
  0
VERTEX
  8
SHEET
 10
24550.00
 20
27350.00
  0
SEQEND
  8
SHEET
  0
POLYLINE
  8
SHEET
 66
     1
 10
0.00
 20
0.00
 40
0.00
 41
0.00
  0
VERTEX
  8
SHEET
 10
24750.00
 20
27150.00
 40
0.00
 41
0.00
  0
VERTEX
  8
SHEET
 10
25550.00
 20
27150.00
 40
0.00
 41
0.00
  0
VERTEX
  8
SHEET
 10
25550.00
 20
27150.00
  0
SEQEND
  8
SHEET
  0
POLYLINE
  8
SHEET
 66
     1
 10
0.00
 20
0.00
 40
0.00
 41
0.00
  0
VERTEX
  8
SHEET
 10
24750.00
 20
26300.00
 40
0.00
 41
0.00
  0
VERTEX
  8
SHEET
 10
24500.00
 20
26300.00
 40
0.00
 41
0.00
  0
VERTEX
  8
SHEET
 10
24500.00
 20
26300.00
  0
SEQEND
  8
SHEET
  0
INSERT
  8
SHEET
  2
__JUNCTIONS__
 10
22100.00
 20
25450.00
  0
POLYLINE
  8
SHEET
 66
     1
 10
0.00
 20
0.00
 40
0.00
 41
0.00
  0
VERTEX
  8
SHEET
 10
23750.00
 20
25450.00
 40
0.00
 41
0.00
  0
VERTEX
  8
SHEET
 10
22100.00
 20
25450.00
 40
0.00
 41
0.00
  0
VERTEX
  8
SHEET
 10
22100.00
 20
25450.00
  0
SEQEND
  8
SHEET
  0
POLYLINE
  8
SHEET
 66
     1
 10
0.00
 20
0.00
 40
0.00
 41
0.00
  0
VERTEX
  8
SHEET
 10
22100.00
 20
25450.00
 40
0.00
 41
0.00
  0
VERTEX
  8
SHEET
 10
22100.00
 20
25850.00
  0
VERTEX
  8
SHEET
 10
22100.00
 20
25850.00
 40
0.00
 41
0.00
  0
VERTEX
  8
SHEET
 10
22450.00
 20
25850.00
 40
0.00
 41
0.00
  0
VERTEX
  8
SHEET
 10
22450.00
 20
25850.00
  0
SEQEND
  8
SHEET
  0
POLYLINE
  8
SHEET
 66
     1
 10
0.00
 20
0.00
 40
0.00
 41
0.00
  0
VERTEX
  8
SHEET
 10
22100.00
 20
25450.00
 40
0.00
 41
0.00
  0
VERTEX
  8
SHEET
 10
22100.00
 20
25250.00
 40
0.00
 41
0.00
  0
VERTEX
  8
SHEET
 10
22100.00
 20
25250.00
  0
SEQEND
  8
SHEET
  0
POLYLINE
  8
SHEET
 66
     1
 10
0.00
 20
0.00
 40
0.00
 41
0.00
  0
VERTEX
  8
SHEET
 10
16600.00
 20
24550.00
 40
0.00
 41
0.00
  0
VERTEX
  8
SHEET
 10
16900.00
 20
24550.00
  0
VERTEX
  8
SHEET
 10
16900.00
 20
24550.00
 40
0.00
 41
0.00
  0
VERTEX
  8
SHEET
 10
16900.00
 20
24650.00
  0
VERTEX
  8
SHEET
 10
16900.00
 20
24650.00
 40
0.00
 41
0.00
  0
VERTEX
  8
SHEET
 10
17050.00
 20
24650.00
 40
0.00
 41
0.00
  0
VERTEX
  8
SHEET
 10
17050.00
 20
24650.00
  0
SEQEND
  8
SHEET
  0
INSERT
  8
SHEET
  2
__JUNCTIONS__
 10
20900.00
 20
19850.00
  0
INSERT
  8
SHEET
  2
__JUNCTIONS__
 10
21900.00
 20
24200.00
  0
POLYLINE
  8
SHEET
 66
     1
 10
0.00
 20
0.00
 40
0.00
 41
0.00
  0
VERTEX
  8
SHEET
 10
20500.00
 20
19850.00
 40
0.00
 41
0.00
  0
VERTEX
  8
SHEET
 10
20900.00
 20
19850.00
 40
0.00
 41
0.00
  0
VERTEX
  8
SHEET
 10
20900.00
 20
19850.00
  0
SEQEND
  8
SHEET
  0
POLYLINE
  8
SHEET
 66
     1
 10
0.00
 20
0.00
 40
0.00
 41
0.00
  0
VERTEX
  8
SHEET
 10
20900.00
 20
19850.00
 40
0.00
 41
0.00
  0
VERTEX
  8
SHEET
 10
21000.00
 20
19850.00
  0
VERTEX
  8
SHEET
 10
21000.00
 20
19850.00
 40
0.00
 41
0.00
  0
VERTEX
  8
SHEET
 10
21000.00
 20
19650.00
  0
VERTEX
  8
SHEET
 10
21000.00
 20
19650.00
 40
0.00
 41
0.00
  0
VERTEX
  8
SHEET
 10
21050.00
 20
19650.00
 40
0.00
 41
0.00
  0
VERTEX
  8
SHEET
 10
21050.00
 20
19650.00
  0
SEQEND
  8
SHEET
  0
POLYLINE
  8
SHEET
 66
     1
 10
0.00
 20
0.00
 40
0.00
 41
0.00
  0
VERTEX
  8
SHEET
 10
22450.00
 20
26350.00
 40
0.00
 41
0.00
  0
VERTEX
  8
SHEET
 10
21900.00
 20
26350.00
  0
VERTEX
  8
SHEET
 10
21900.00
 20
26350.00
 40
0.00
 41
0.00
  0
VERTEX
  8
SHEET
 10
21900.00
 20
24200.00
 40
0.00
 41
0.00
  0
VERTEX
  8
SHEET
 10
21900.00
 20
24200.00
  0
SEQEND
  8
SHEET
  0
POLYLINE
  8
SHEET
 66
     1
 10
0.00
 20
0.00
 40
0.00
 41
0.00
  0
VERTEX
  8
SHEET
 10
21900.00
 20
24200.00
 40
0.00
 41
0.00
  0
VERTEX
  8
SHEET
 10
22350.00
 20
24200.00
 40
0.00
 41
0.00
  0
VERTEX
  8
SHEET
 10
22350.00
 20
24200.00
  0
SEQEND
  8
SHEET
  0
POLYLINE
  8
SHEET
 66
     1
 10
0.00
 20
0.00
 40
0.00
 41
0.00
  0
VERTEX
  8
SHEET
 10
21900.00
 20
24200.00
 40
0.00
 41
0.00
  0
VERTEX
  8
SHEET
 10
21150.00
 20
24200.00
  0
VERTEX
  8
SHEET
 10
21150.00
 20
24200.00
 40
0.00
 41
0.00
  0
VERTEX
  8
SHEET
 10
21150.00
 20
20250.00
  0
VERTEX
  8
SHEET
 10
21150.00
 20
20250.00
 40
0.00
 41
0.00
  0
VERTEX
  8
SHEET
 10
20900.00
 20
20250.00
  0
VERTEX
  8
SHEET
 10
20900.00
 20
20250.00
 40
0.00
 41
0.00
  0
VERTEX
  8
SHEET
 10
20900.00
 20
19850.00
 40
0.00
 41
0.00
  0
VERTEX
  8
SHEET
 10
20900.00
 20
19850.00
  0
SEQEND
  8
SHEET
  0
POLYLINE
  8
SHEET
 66
     1
 10
0.00
 20
0.00
 40
0.00
 41
0.00
  0
VERTEX
  8
SHEET
 10
20900.00
 20
19850.00
 40
0.00
 41
0.00
  0
VERTEX
  8
SHEET
 10
20900.00
 20
19300.00
  0
VERTEX
  8
SHEET
 10
20900.00
 20
19300.00
 40
0.00
 41
0.00
  0
VERTEX
  8
SHEET
 10
27000.00
 20
19300.00
  0
VERTEX
  8
SHEET
 10
27000.00
 20
19300.00
 40
0.00
 41
0.00
  0
VERTEX
  8
SHEET
 10
27000.00
 20
27150.00
 40
0.00
 41
0.00
  0
VERTEX
  8
SHEET
 10
27000.00
 20
27150.00
  0
SEQEND
  8
SHEET
  0
INSERT
  8
SHEET
  2
__JUNCTIONS__
 10
22350.00
 20
23400.00
  0
POLYLINE
  8
SHEET
 66
     1
 10
0.00
 20
0.00
 40
0.00
 41
0.00
  0
VERTEX
  8
SHEET
 10
22350.00
 20
23700.00
 40
0.00
 41
0.00
  0
VERTEX
  8
SHEET
 10
22350.00
 20
23400.00
 40
0.00
 41
0.00
  0
VERTEX
  8
SHEET
 10
22350.00
 20
23400.00
  0
SEQEND
  8
SHEET
  0
POLYLINE
  8
SHEET
 66
     1
 10
0.00
 20
0.00
 40
0.00
 41
0.00
  0
VERTEX
  8
SHEET
 10
23600.00
 20
23650.00
 40
0.00
 41
0.00
  0
VERTEX
  8
SHEET
 10
23600.00
 20
23400.00
  0
VERTEX
  8
SHEET
 10
23600.00
 20
23400.00
 40
0.00
 41
0.00
  0
VERTEX
  8
SHEET
 10
22350.00
 20
23400.00
 40
0.00
 41
0.00
  0
VERTEX
  8
SHEET
 10
22350.00
 20
23400.00
  0
SEQEND
  8
SHEET
  0
POLYLINE
  8
SHEET
 66
     1
 10
0.00
 20
0.00
 40
0.00
 41
0.00
  0
VERTEX
  8
SHEET
 10
22350.00
 20
23400.00
 40
0.00
 41
0.00
  0
VERTEX
  8
SHEET
 10
22050.00
 20
23400.00
  0
VERTEX
  8
SHEET
 10
22050.00
 20
23400.00
 40
0.00
 41
0.00
  0
VERTEX
  8
SHEET
 10
22050.00
 20
23050.00
 40
0.00
 41
0.00
  0
VERTEX
  8
SHEET
 10
22050.00
 20
23050.00
  0
SEQEND
  8
SHEET
  0
POLYLINE
  8
SHEET
 66
     1
 10
0.00
 20
0.00
 40
0.00
 41
0.00
  0
VERTEX
  8
SHEET
 10
26450.00
 20
27450.00
 40
0.00
 41
0.00
  0
VERTEX
  8
SHEET
 10
26750.00
 20
27450.00
  0
VERTEX
  8
SHEET
 10
26750.00
 20
27450.00
 40
0.00
 41
0.00
  0
VERTEX
  8
SHEET
 10
26750.00
 20
28450.00
  0
VERTEX
  8
SHEET
 10
26750.00
 20
28450.00
 40
0.00
 41
0.00
  0
VERTEX
  8
SHEET
 10
29550.00
 20
28450.00
  0
VERTEX
  8
SHEET
 10
29550.00
 20
28450.00
 40
0.00
 41
0.00
  0
VERTEX
  8
SHEET
 10
29550.00
 20
28125.00
  0
VERTEX
  8
SHEET
 10
29550.00
 20
28125.00
 40
0.00
 41
0.00
  0
VERTEX
  8
SHEET
 10
29275.00
 20
28125.00
 40
0.00
 41
0.00
  0
VERTEX
  8
SHEET
 10
29275.00
 20
28125.00
  0
SEQEND
  8
SHEET
  0
POLYLINE
  8
SHEET
 66
     1
 10
0.00
 20
0.00
 40
0.00
 41
0.00
  0
VERTEX
  8
SHEET
 10
26450.00
 20
26600.00
 40
0.00
 41
0.00
  0
VERTEX
  8
SHEET
 10
26900.00
 20
26600.00
  0
VERTEX
  8
SHEET
 10
26900.00
 20
26600.00
 40
0.00
 41
0.00
  0
VERTEX
  8
SHEET
 10
26900.00
 20
28350.00
  0
VERTEX
  8
SHEET
 10
26900.00
 20
28350.00
 40
0.00
 41
0.00
  0
VERTEX
  8
SHEET
 10
29650.00
 20
28350.00
  0
VERTEX
  8
SHEET
 10
29650.00
 20
28350.00
 40
0.00
 41
0.00
  0
VERTEX
  8
SHEET
 10
29650.00
 20
27975.00
  0
VERTEX
  8
SHEET
 10
29650.00
 20
27975.00
 40
0.00
 41
0.00
  0
VERTEX
  8
SHEET
 10
29275.00
 20
27975.00
 40
0.00
 41
0.00
  0
VERTEX
  8
SHEET
 10
29275.00
 20
27975.00
  0
SEQEND
  8
SHEET
  0
POLYLINE
  8
SHEET
 66
     1
 10
0.00
 20
0.00
 40
0.00
 41
0.00
  0
VERTEX
  8
SHEET
 10
28750.00
 20
27900.00
 40
0.00
 41
0.00
  0
VERTEX
  8
SHEET
 10
28800.00
 20
27900.00
  0
VERTEX
  8
SHEET
 10
28800.00
 20
27900.00
 40
0.00
 41
0.00
  0
VERTEX
  8
SHEET
 10
28800.00
 20
27150.00
  0
VERTEX
  8
SHEET
 10
28800.00
 20
27150.00
 40
0.00
 41
0.00
  0
VERTEX
  8
SHEET
 10
28650.00
 20
27150.00
 40
0.00
 41
0.00
  0
VERTEX
  8
SHEET
 10
28650.00
 20
27150.00
  0
SEQEND
  8
SHEET
  0
INSERT
  8
SHEET
  2
__JUNCTIONS__
 10
23750.00
 20
26900.00
  0
INSERT
  8
SHEET
  2
__JUNCTIONS__
 10
21250.00
 20
24500.00
  0
POLYLINE
  8
SHEET
 66
     1
 10
0.00
 20
0.00
 40
0.00
 41
0.00
  0
VERTEX
  8
SHEET
 10
24750.00
 20
26900.00
 40
0.00
 41
0.00
  0
VERTEX
  8
SHEET
 10
23750.00
 20
26900.00
 40
0.00
 41
0.00
  0
VERTEX
  8
SHEET
 10
23750.00
 20
26900.00
  0
SEQEND
  8
SHEET
  0
POLYLINE
  8
SHEET
 66
     1
 10
0.00
 20
0.00
 40
0.00
 41
0.00
  0
VERTEX
  8
SHEET
 10
23750.00
 20
26900.00
 40
0.00
 41
0.00
  0
VERTEX
  8
SHEET
 10
23750.00
 20
26050.00
 40
0.00
 41
0.00
  0
VERTEX
  8
SHEET
 10
23750.00
 20
26050.00
  0
SEQEND
  8
SHEET
  0
POLYLINE
  8
SHEET
 66
     1
 10
0.00
 20
0.00
 40
0.00
 41
0.00
  0
VERTEX
  8
SHEET
 10
24750.00
 20
27750.00
 40
0.00
 41
0.00
  0
VERTEX
  8
SHEET
 10
24750.00
 20
27800.00
  0
VERTEX
  8
SHEET
 10
24750.00
 20
27800.00
 40
0.00
 41
0.00
  0
VERTEX
  8
SHEET
 10
23750.00
 20
27800.00
  0
VERTEX
  8
SHEET
 10
23750.00
 20
27800.00
 40
0.00
 41
0.00
  0
VERTEX
  8
SHEET
 10
23750.00
 20
26900.00
 40
0.00
 41
0.00
  0
VERTEX
  8
SHEET
 10
23750.00
 20
26900.00
  0
SEQEND
  8
SHEET
  0
POLYLINE
  8
SHEET
 66
     1
 10
0.00
 20
0.00
 40
0.00
 41
0.00
  0
VERTEX
  8
SHEET
 10
20500.00
 20
21000.00
 40
0.00
 41
0.00
  0
VERTEX
  8
SHEET
 10
20750.00
 20
21000.00
 40
0.00
 41
0.00
  0
VERTEX
  8
SHEET
 10
20750.00
 20
21000.00
  0
SEQEND
  8
SHEET
  0
POLYLINE
  8
SHEET
 66
     1
 10
0.00
 20
0.00
 40
0.00
 41
0.00
  0
VERTEX
  8
SHEET
 10
20750.00
 20
21000.00
 40
0.00
 41
0.00
  0
VERTEX
  8
SHEET
 10
21250.00
 20
21000.00
  0
VERTEX
  8
SHEET
 10
21250.00
 20
21000.00
 40
0.00
 41
0.00
  0
VERTEX
  8
SHEET
 10
21250.00
 20
24500.00
 40
0.00
 41
0.00
  0
VERTEX
  8
SHEET
 10
21250.00
 20
24500.00
  0
SEQEND
  8
SHEET
  0
POLYLINE
  8
SHEET
 66
     1
 10
0.00
 20
0.00
 40
0.00
 41
0.00
  0
VERTEX
  8
SHEET
 10
23600.00
 20
24250.00
 40
0.00
 41
0.00
  0
VERTEX
  8
SHEET
 10
23600.00
 20
24500.00
  0
VERTEX
  8
SHEET
 10
23600.00
 20
24500.00
 40
0.00
 41
0.00
  0
VERTEX
  8
SHEET
 10
21250.00
 20
24500.00
 40
0.00
 41
0.00
  0
VERTEX
  8
SHEET
 10
21250.00
 20
24500.00
  0
SEQEND
  8
SHEET
  0
POLYLINE
  8
SHEET
 66
     1
 10
0.00
 20
0.00
 40
0.00
 41
0.00
  0
VERTEX
  8
SHEET
 10
21250.00
 20
24500.00
 40
0.00
 41
0.00
  0
VERTEX
  8
SHEET
 10
21250.00
 20
26900.00
  0
VERTEX
  8
SHEET
 10
21250.00
 20
26900.00
 40
0.00
 41
0.00
  0
VERTEX
  8
SHEET
 10
23750.00
 20
26900.00
 40
0.00
 41
0.00
  0
VERTEX
  8
SHEET
 10
23750.00
 20
26900.00
  0
SEQEND
  8
SHEET
  0
POLYLINE
  8
SHEET
 66
     1
 10
0.00
 20
0.00
 40
0.00
 41
0.00
  0
VERTEX
  8
SHEET
 10
27600.00
 20
27150.00
 40
0.00
 41
0.00
  0
VERTEX
  8
SHEET
 10
28050.00
 20
27150.00
 40
0.00
 41
0.00
  0
VERTEX
  8
SHEET
 10
28050.00
 20
27150.00
  0
SEQEND
  8
SHEET
  0
POLYLINE
  8
SHEET
 66
     1
 10
0.00
 20
0.00
 40
0.00
 41
0.00
  0
VERTEX
  8
SHEET
 10
27300.00
 20
26850.00
 40
0.00
 41
0.00
  0
VERTEX
  8
SHEET
 10
27300.00
 20
26550.00
  0
VERTEX
  8
SHEET
 10
27300.00
 20
26550.00
 40
0.00
 41
0.00
  0
VERTEX
  8
SHEET
 10
28350.00
 20
26550.00
 40
0.00
 41
0.00
  0
VERTEX
  8
SHEET
 10
28350.00
 20
26550.00
  0
SEQEND
  8
SHEET
  0
POLYLINE
  8
SHEET
 66
     1
 10
0.00
 20
0.00
 40
0.00
 41
0.00
  0
VERTEX
  8
SHEET
 10
28350.00
 20
26550.00
 40
0.00
 41
0.00
  0
VERTEX
  8
SHEET
 10
28350.00
 20
26850.00
 40
0.00
 41
0.00
  0
VERTEX
  8
SHEET
 10
28350.00
 20
26850.00
  0
SEQEND
  8
SHEET
  0
INSERT
  8
SHEET
  2
__JUNCTIONS__
 10
20200.00
 20
20550.00
  0
POLYLINE
  8
SHEET
 66
     1
 10
0.00
 20
0.00
 40
0.00
 41
0.00
  0
VERTEX
  8
SHEET
 10
20200.00
 20
20450.00
 40
0.00
 41
0.00
  0
VERTEX
  8
SHEET
 10
20200.00
 20
20550.00
 40
0.00
 41
0.00
  0
VERTEX
  8
SHEET
 10
20200.00
 20
20550.00
  0
SEQEND
  8
SHEET
  0
POLYLINE
  8
SHEET
 66
     1
 10
0.00
 20
0.00
 40
0.00
 41
0.00
  0
VERTEX
  8
SHEET
 10
20750.00
 20
20750.00
 40
0.00
 41
0.00
  0
VERTEX
  8
SHEET
 10
20750.00
 20
20550.00
  0
VERTEX
  8
SHEET
 10
20750.00
 20
20550.00
 40
0.00
 41
0.00
  0
VERTEX
  8
SHEET
 10
20200.00
 20
20550.00
 40
0.00
 41
0.00
  0
VERTEX
  8
SHEET
 10
20200.00
 20
20550.00
  0
SEQEND
  8
SHEET
  0
POLYLINE
  8
SHEET
 66
     1
 10
0.00
 20
0.00
 40
0.00
 41
0.00
  0
VERTEX
  8
SHEET
 10
20200.00
 20
20550.00
 40
0.00
 41
0.00
  0
VERTEX
  8
SHEET
 10
20200.00
 20
20700.00
 40
0.00
 41
0.00
  0
VERTEX
  8
SHEET
 10
20200.00
 20
20700.00
  0
SEQEND
  8
SHEET
  0
INSERT
  8
SHEET
  2
__JUNCTIONS__
 10
18700.00
 20
19850.00
  0
POLYLINE
  8
SHEET
 66
     1
 10
0.00
 20
0.00
 40
0.00
 41
0.00
  0
VERTEX
  8
SHEET
 10
18250.00
 20
19850.00
 40
0.00
 41
0.00
  0
VERTEX
  8
SHEET
 10
18700.00
 20
19850.00
 40
0.00
 41
0.00
  0
VERTEX
  8
SHEET
 10
18700.00
 20
19850.00
  0
SEQEND
  8
SHEET
  0
POLYLINE
  8
SHEET
 66
     1
 10
0.00
 20
0.00
 40
0.00
 41
0.00
  0
VERTEX
  8
SHEET
 10
19350.00
 20
19650.00
 40
0.00
 41
0.00
  0
VERTEX
  8
SHEET
 10
19350.00
 20
19750.00
  0
VERTEX
  8
SHEET
 10
19350.00
 20
19750.00
 40
0.00
 41
0.00
  0
VERTEX
  8
SHEET
 10
18700.00
 20
19750.00
  0
VERTEX
  8
SHEET
 10
18700.00
 20
19750.00
 40
0.00
 41
0.00
  0
VERTEX
  8
SHEET
 10
18700.00
 20
19850.00
 40
0.00
 41
0.00
  0
VERTEX
  8
SHEET
 10
18700.00
 20
19850.00
  0
SEQEND
  8
SHEET
  0
POLYLINE
  8
SHEET
 66
     1
 10
0.00
 20
0.00
 40
0.00
 41
0.00
  0
VERTEX
  8
SHEET
 10
18700.00
 20
19850.00
 40
0.00
 41
0.00
  0
VERTEX
  8
SHEET
 10
18700.00
 20
20000.00
  0
VERTEX
  8
SHEET
 10
18700.00
 20
20000.00
 40
0.00
 41
0.00
  0
VERTEX
  8
SHEET
 10
18850.00
 20
20000.00
 40
0.00
 41
0.00
  0
VERTEX
  8
SHEET
 10
18850.00
 20
20000.00
  0
SEQEND
  8
SHEET
  0
INSERT
  8
SHEET
  2
__JUNCTIONS__
 10
18700.00
 20
21800.00
  0
POLYLINE
  8
SHEET
 66
     1
 10
0.00
 20
0.00
 40
0.00
 41
0.00
  0
VERTEX
  8
SHEET
 10
18250.00
 20
21800.00
 40
0.00
 41
0.00
  0
VERTEX
  8
SHEET
 10
18700.00
 20
21800.00
 40
0.00
 41
0.00
  0
VERTEX
  8
SHEET
 10
18700.00
 20
21800.00
  0
SEQEND
  8
SHEET
  0
POLYLINE
  8
SHEET
 66
     1
 10
0.00
 20
0.00
 40
0.00
 41
0.00
  0
VERTEX
  8
SHEET
 10
18700.00
 20
21800.00
 40
0.00
 41
0.00
  0
VERTEX
  8
SHEET
 10
18700.00
 20
21950.00
  0
VERTEX
  8
SHEET
 10
18700.00
 20
21950.00
 40
0.00
 41
0.00
  0
VERTEX
  8
SHEET
 10
18850.00
 20
21950.00
 40
0.00
 41
0.00
  0
VERTEX
  8
SHEET
 10
18850.00
 20
21950.00
  0
SEQEND
  8
SHEET
  0
POLYLINE
  8
SHEET
 66
     1
 10
0.00
 20
0.00
 40
0.00
 41
0.00
  0
VERTEX
  8
SHEET
 10
18700.00
 20
21800.00
 40
0.00
 41
0.00
  0
VERTEX
  8
SHEET
 10
18700.00
 20
21750.00
  0
VERTEX
  8
SHEET
 10
18700.00
 20
21750.00
 40
0.00
 41
0.00
  0
VERTEX
  8
SHEET
 10
19350.00
 20
21750.00
  0
VERTEX
  8
SHEET
 10
19350.00
 20
21750.00
 40
0.00
 41
0.00
  0
VERTEX
  8
SHEET
 10
19350.00
 20
21600.00
 40
0.00
 41
0.00
  0
VERTEX
  8
SHEET
 10
19350.00
 20
21600.00
  0
SEQEND
  8
SHEET
  0
POLYLINE
  8
SHEET
 66
     1
 10
0.00
 20
0.00
 40
0.00
 41
0.00
  0
VERTEX
  8
SHEET
 10
28350.00
 20
23750.00
 40
0.00
 41
0.00
  0
VERTEX
  8
SHEET
 10
28900.00
 20
23750.00
 40
0.00
 41
0.00
  0
VERTEX
  8
SHEET
 10
28900.00
 20
23750.00
  0
SEQEND
  8
SHEET
  0
POLYLINE
  8
SHEET
 66
     1
 10
0.00
 20
0.00
 40
0.00
 41
0.00
  0
VERTEX
  8
SHEET
 10
28300.00
 20
24400.00
 40
0.00
 41
0.00
  0
VERTEX
  8
SHEET
 10
28900.00
 20
24400.00
  0
VERTEX
  8
SHEET
 10
28900.00
 20
24400.00
 40
0.00
 41
0.00
  0
VERTEX
  8
SHEET
 10
28900.00
 20
23750.00
 40
0.00
 41
0.00
  0
VERTEX
  8
SHEET
 10
28900.00
 20
23750.00
  0
SEQEND
  8
SHEET
  0
INSERT
  8
SHEET
  2
__JUNCTIONS__
 10
25800.00
 20
23950.00
  0
POLYLINE
  8
SHEET
 66
     1
 10
0.00
 20
0.00
 40
0.00
 41
0.00
  0
VERTEX
  8
SHEET
 10
25050.00
 20
23950.00
 40
0.00
 41
0.00
  0
VERTEX
  8
SHEET
 10
25800.00
 20
23950.00
 40
0.00
 41
0.00
  0
VERTEX
  8
SHEET
 10
25800.00
 20
23950.00
  0
SEQEND
  8
SHEET
  0
POLYLINE
  8
SHEET
 66
     1
 10
0.00
 20
0.00
 40
0.00
 41
0.00
  0
VERTEX
  8
SHEET
 10
25800.00
 20
23950.00
 40
0.00
 41
0.00
  0
VERTEX
  8
SHEET
 10
25800.00
 20
28200.00
  0
VERTEX
  8
SHEET
 10
25800.00
 20
28200.00
 40
0.00
 41
0.00
  0
VERTEX
  8
SHEET
 10
17450.00
 20
28200.00
  0
VERTEX
  8
SHEET
 10
17450.00
 20
28200.00
 40
0.00
 41
0.00
  0
VERTEX
  8
SHEET
 10
17450.00
 20
24150.00
  0
VERTEX
  8
SHEET
 10
17450.00
 20
24150.00
 40
0.00
 41
0.00
  0
VERTEX
  8
SHEET
 10
16650.00
 20
24150.00
 40
0.00
 41
0.00
  0
VERTEX
  8
SHEET
 10
16650.00
 20
24150.00
  0
SEQEND
  8
SHEET
  0
POLYLINE
  8
SHEET
 66
     1
 10
0.00
 20
0.00
 40
0.00
 41
0.00
  0
VERTEX
  8
SHEET
 10
25800.00
 20
23950.00
 40
0.00
 41
0.00
  0
VERTEX
  8
SHEET
 10
27950.00
 20
23950.00
 40
0.00
 41
0.00
  0
VERTEX
  8
SHEET
 10
27950.00
 20
23950.00
  0
SEQEND
  8
SHEET
  0
INSERT
  8
SHEET
  2
__JUNCTIONS__
 10
25700.00
 20
25750.00
  0
POLYLINE
  8
SHEET
 66
     1
 10
0.00
 20
0.00
 40
0.00
 41
0.00
  0
VERTEX
  8
SHEET
 10
25000.00
 20
25750.00
 40
0.00
 41
0.00
  0
VERTEX
  8
SHEET
 10
25700.00
 20
25750.00
 40
0.00
 41
0.00
  0
VERTEX
  8
SHEET
 10
25700.00
 20
25750.00
  0
SEQEND
  8
SHEET
  0
POLYLINE
  8
SHEET
 66
     1
 10
0.00
 20
0.00
 40
0.00
 41
0.00
  0
VERTEX
  8
SHEET
 10
25700.00
 20
25750.00
 40
0.00
 41
0.00
  0
VERTEX
  8
SHEET
 10
25700.00
 20
28100.00
  0
VERTEX
  8
SHEET
 10
25700.00
 20
28100.00
 40
0.00
 41
0.00
  0
VERTEX
  8
SHEET
 10
17550.00
 20
28100.00
  0
VERTEX
  8
SHEET
 10
17550.00
 20
28100.00
 40
0.00
 41
0.00
  0
VERTEX
  8
SHEET
 10
17550.00
 20
25050.00
  0
VERTEX
  8
SHEET
 10
17550.00
 20
25050.00
 40
0.00
 41
0.00
  0
VERTEX
  8
SHEET
 10
16600.00
 20
25050.00
 40
0.00
 41
0.00
  0
VERTEX
  8
SHEET
 10
16600.00
 20
25050.00
  0
SEQEND
  8
SHEET
  0
POLYLINE
  8
SHEET
 66
     1
 10
0.00
 20
0.00
 40
0.00
 41
0.00
  0
VERTEX
  8
SHEET
 10
25700.00
 20
25750.00
 40
0.00
 41
0.00
  0
VERTEX
  8
SHEET
 10
25700.00
 20
24600.00
  0
VERTEX
  8
SHEET
 10
25700.00
 20
24600.00
 40
0.00
 41
0.00
  0
VERTEX
  8
SHEET
 10
27900.00
 20
24600.00
 40
0.00
 41
0.00
  0
VERTEX
  8
SHEET
 10
27900.00
 20
24600.00
  0
SEQEND
  8
SHEET
  0
POLYLINE
  8
SHEET
 66
     1
 10
0.00
 20
0.00
 40
0.00
 41
0.00
  0
VERTEX
  8
SHEET
 10
22250.00
 20
27000.00
 40
0.00
 41
0.00
  0
VERTEX
  8
SHEET
 10
22250.00
 20
26950.00
 40
0.00
 41
0.00
  0
VERTEX
  8
SHEET
 10
22250.00
 20
26950.00
  0
SEQEND
  8
SHEET
  0
POLYLINE
  8
SHEET
 66
     1
 10
0.00
 20
0.00
 40
0.00
 41
0.00
  0
VERTEX
  8
SHEET
 10
22250.00
 20
27000.00
 40
0.00
 41
0.00
  0
VERTEX
  8
SHEET
 10
22800.00
 20
27000.00
  0
VERTEX
  8
SHEET
 10
22800.00
 20
27000.00
 40
0.00
 41
0.00
  0
VERTEX
  8
SHEET
 10
22800.00
 20
27300.00
 40
0.00
 41
0.00
  0
VERTEX
  8
SHEET
 10
22800.00
 20
27300.00
  0
SEQEND
  8
SHEET
  0
POLYLINE
  8
SHEET
 66
     1
 10
0.00
 20
0.00
 40
0.00
 41
0.00
  0
VERTEX
  8
SHEET
 10
22100.00
 20
27500.00
 40
0.00
 41
0.00
  0
VERTEX
  8
SHEET
 10
22250.00
 20
27500.00
 40
0.00
 41
0.00
  0
VERTEX
  8
SHEET
 10
22250.00
 20
27500.00
  0
SEQEND
  8
SHEET
  0
POLYLINE
  8
SHEET
 66
     1
 10
0.00
 20
0.00
 40
0.00
 41
0.00
  0
VERTEX
  8
SHEET
 10
22250.00
 20
27500.00
 40
0.00
 41
0.00
  0
VERTEX
  8
SHEET
 10
22600.00
 20
27500.00
  0
VERTEX
  8
SHEET
 10
22600.00
 20
27500.00
 40
0.00
 41
0.00
  0
VERTEX
  8
SHEET
 10
22600.00
 20
27100.00
  0
VERTEX
  8
SHEET
 10
22600.00
 20
27100.00
 40
0.00
 41
0.00
  0
VERTEX
  8
SHEET
 10
23550.00
 20
27100.00
  0
VERTEX
  8
SHEET
 10
23550.00
 20
27100.00
 40
0.00
 41
0.00
  0
VERTEX
  8
SHEET
 10
23550.00
 20
26500.00
  0
VERTEX
  8
SHEET
 10
23550.00
 20
26500.00
 40
0.00
 41
0.00
  0
VERTEX
  8
SHEET
 10
23900.00
 20
26500.00
 40
0.00
 41
0.00
  0
VERTEX
  8
SHEET
 10
23900.00
 20
26500.00
  0
SEQEND
  8
SHEET
  0
POLYLINE
  8
SHEET
 66
     1
 10
0.00
 20
0.00
 40
0.00
 41
0.00
  0
VERTEX
  8
SHEET
 10
22650.00
 20
27800.00
 40
0.00
 41
0.00
  0
VERTEX
  8
SHEET
 10
22800.00
 20
27800.00
 40
0.00
 41
0.00
  0
VERTEX
  8
SHEET
 10
22800.00
 20
27800.00
  0
SEQEND
  8
SHEET
  0
POLYLINE
  8
SHEET
 66
     1
 10
0.00
 20
0.00
 40
0.00
 41
0.00
  0
VERTEX
  8
SHEET
 10
22800.00
 20
27800.00
 40
0.00
 41
0.00
  0
VERTEX
  8
SHEET
 10
23650.00
 20
27800.00
  0
VERTEX
  8
SHEET
 10
23650.00
 20
27800.00
 40
0.00
 41
0.00
  0
VERTEX
  8
SHEET
 10
23650.00
 20
27350.00
  0
VERTEX
  8
SHEET
 10
23650.00
 20
27350.00
 40
0.00
 41
0.00
  0
VERTEX
  8
SHEET
 10
23900.00
 20
27350.00
 40
0.00
 41
0.00
  0
VERTEX
  8
SHEET
 10
23900.00
 20
27350.00
  0
SEQEND
  8
SHEET
  0
POLYLINE
  8
SHEET
 66
     1
 10
0.00
 20
0.00
 40
0.00
 41
0.00
  0
VERTEX
  8
SHEET
 10
23550.00
 20
25850.00
 40
0.00
 41
0.00
  0
VERTEX
  8
SHEET
 10
23200.00
 20
25850.00
  0
VERTEX
  8
SHEET
 10
23200.00
 20
25850.00
 40
0.00
 41
0.00
  0
VERTEX
  8
SHEET
 10
23200.00
 20
24850.00
  0
VERTEX
  8
SHEET
 10
23200.00
 20
24850.00
 40
0.00
 41
0.00
  0
VERTEX
  8
SHEET
 10
23100.00
 20
24850.00
 40
0.00
 41
0.00
  0
VERTEX
  8
SHEET
 10
23100.00
 20
24850.00
  0
SEQEND
  8
SHEET
  0
POLYLINE
  8
SHEET
 66
     1
 10
0.00
 20
0.00
 40
0.00
 41
0.00
  0
VERTEX
  8
SHEET
 10
23400.00
 20
24050.00
 40
0.00
 41
0.00
  0
VERTEX
  8
SHEET
 10
23200.00
 20
24050.00
  0
VERTEX
  8
SHEET
 10
23200.00
 20
24050.00
 40
0.00
 41
0.00
  0
VERTEX
  8
SHEET
 10
23200.00
 20
22700.00
  0
VERTEX
  8
SHEET
 10
23200.00
 20
22700.00
 40
0.00
 41
0.00
  0
VERTEX
  8
SHEET
 10
23150.00
 20
22700.00
 40
0.00
 41
0.00
  0
VERTEX
  8
SHEET
 10
23150.00
 20
22700.00
  0
SEQEND
  8
SHEET
  0
INSERT
  8
SHEET
  2
__JUNCTIONS__
 10
19700.00
 20
19850.00
  0
INSERT
  8
SHEET
  2
__JUNCTIONS__
 10
19200.00
 20
19850.00
  0
POLYLINE
  8
SHEET
 66
     1
 10
0.00
 20
0.00
 40
0.00
 41
0.00
  0
VERTEX
  8
SHEET
 10
19700.00
 20
19850.00
 40
0.00
 41
0.00
  0
VERTEX
  8
SHEET
 10
19200.00
 20
19850.00
 40
0.00
 41
0.00
  0
VERTEX
  8
SHEET
 10
19200.00
 20
19850.00
  0
SEQEND
  8
SHEET
  0
POLYLINE
  8
SHEET
 66
     1
 10
0.00
 20
0.00
 40
0.00
 41
0.00
  0
VERTEX
  8
SHEET
 10
19900.00
 20
19850.00
 40
0.00
 41
0.00
  0
VERTEX
  8
SHEET
 10
19700.00
 20
19850.00
 40
0.00
 41
0.00
  0
VERTEX
  8
SHEET
 10
19700.00
 20
19850.00
  0
SEQEND
  8
SHEET
  0
POLYLINE
  8
SHEET
 66
     1
 10
0.00
 20
0.00
 40
0.00
 41
0.00
  0
VERTEX
  8
SHEET
 10
19700.00
 20
19850.00
 40
0.00
 41
0.00
  0
VERTEX
  8
SHEET
 10
19700.00
 20
19550.00
 40
0.00
 41
0.00
  0
VERTEX
  8
SHEET
 10
19700.00
 20
19550.00
  0
SEQEND
  8
SHEET
  0
POLYLINE
  8
SHEET
 66
     1
 10
0.00
 20
0.00
 40
0.00
 41
0.00
  0
VERTEX
  8
SHEET
 10
19700.00
 20
19850.00
 40
0.00
 41
0.00
  0
VERTEX
  8
SHEET
 10
19700.00
 20
21000.00
  0
VERTEX
  8
SHEET
 10
19700.00
 20
21000.00
 40
0.00
 41
0.00
  0
VERTEX
  8
SHEET
 10
19900.00
 20
21000.00
 40
0.00
 41
0.00
  0
VERTEX
  8
SHEET
 10
19900.00
 20
21000.00
  0
SEQEND
  8
SHEET
  0
POLYLINE
  8
SHEET
 66
     1
 10
0.00
 20
0.00
 40
0.00
 41
0.00
  0
VERTEX
  8
SHEET
 10
19200.00
 20
20000.00
 40
0.00
 41
0.00
  0
VERTEX
  8
SHEET
 10
19200.00
 20
19850.00
 40
0.00
 41
0.00
  0
VERTEX
  8
SHEET
 10
19200.00
 20
19850.00
  0
SEQEND
  8
SHEET
  0
POLYLINE
  8
SHEET
 66
     1
 10
0.00
 20
0.00
 40
0.00
 41
0.00
  0
VERTEX
  8
SHEET
 10
19200.00
 20
19850.00
 40
0.00
 41
0.00
  0
VERTEX
  8
SHEET
 10
19200.00
 20
19650.00
  0
VERTEX
  8
SHEET
 10
19200.00
 20
19650.00
 40
0.00
 41
0.00
  0
VERTEX
  8
SHEET
 10
18750.00
 20
19650.00
 40
0.00
 41
0.00
  0
VERTEX
  8
SHEET
 10
18750.00
 20
19650.00
  0
SEQEND
  8
SHEET
  0
INSERT
  8
SHEET
  2
__JUNCTIONS__
 10
16350.00
 20
25200.00
  0
INSERT
  8
SHEET
  2
__JUNCTIONS__
 10
16050.00
 20
24050.00
  0
INSERT
  8
SHEET
  2
__JUNCTIONS__
 10
16050.00
 20
22000.00
  0
INSERT
  8
SHEET
  2
__JUNCTIONS__
 10
16300.00
 20
22000.00
  0
POLYLINE
  8
SHEET
 66
     1
 10
0.00
 20
0.00
 40
0.00
 41
0.00
  0
VERTEX
  8
SHEET
 10
17100.00
 20
26550.00
 40
0.00
 41
0.00
  0
VERTEX
  8
SHEET
 10
17350.00
 20
26550.00
  0
VERTEX
  8
SHEET
 10
17350.00
 20
26550.00
 40
0.00
 41
0.00
  0
VERTEX
  8
SHEET
 10
17350.00
 20
25750.00
  0
VERTEX
  8
SHEET
 10
17350.00
 20
25750.00
 40
0.00
 41
0.00
  0
VERTEX
  8
SHEET
 10
16350.00
 20
25750.00
  0
VERTEX
  8
SHEET
 10
16350.00
 20
25750.00
 40
0.00
 41
0.00
  0
VERTEX
  8
SHEET
 10
16350.00
 20
25200.00
 40
0.00
 41
0.00
  0
VERTEX
  8
SHEET
 10
16350.00
 20
25200.00
  0
SEQEND
  8
SHEET
  0
POLYLINE
  8
SHEET
 66
     1
 10
0.00
 20
0.00
 40
0.00
 41
0.00
  0
VERTEX
  8
SHEET
 10
16350.00
 20
25200.00
 40
0.00
 41
0.00
  0
VERTEX
  8
SHEET
 10
16350.00
 20
24950.00
 40
0.00
 41
0.00
  0
VERTEX
  8
SHEET
 10
16350.00
 20
24950.00
  0
SEQEND
  8
SHEET
  0
POLYLINE
  8
SHEET
 66
     1
 10
0.00
 20
0.00
 40
0.00
 41
0.00
  0
VERTEX
  8
SHEET
 10
16350.00
 20
25200.00
 40
0.00
 41
0.00
  0
VERTEX
  8
SHEET
 10
16050.00
 20
25200.00
  0
VERTEX
  8
SHEET
 10
16050.00
 20
25200.00
 40
0.00
 41
0.00
  0
VERTEX
  8
SHEET
 10
16050.00
 20
24050.00
 40
0.00
 41
0.00
  0
VERTEX
  8
SHEET
 10
16050.00
 20
24050.00
  0
SEQEND
  8
SHEET
  0
POLYLINE
  8
SHEET
 66
     1
 10
0.00
 20
0.00
 40
0.00
 41
0.00
  0
VERTEX
  8
SHEET
 10
17850.00
 20
19850.00
 40
0.00
 41
0.00
  0
VERTEX
  8
SHEET
 10
16050.00
 20
19850.00
  0
VERTEX
  8
SHEET
 10
16050.00
 20
19850.00
 40
0.00
 41
0.00
  0
VERTEX
  8
SHEET
 10
16050.00
 20
22000.00
 40
0.00
 41
0.00
  0
VERTEX
  8
SHEET
 10
16050.00
 20
22000.00
  0
SEQEND
  8
SHEET
  0
POLYLINE
  8
SHEET
 66
     1
 10
0.00
 20
0.00
 40
0.00
 41
0.00
  0
VERTEX
  8
SHEET
 10
16050.00
 20
24050.00
 40
0.00
 41
0.00
  0
VERTEX
  8
SHEET
 10
16350.00
 20
24050.00
 40
0.00
 41
0.00
  0
VERTEX
  8
SHEET
 10
16350.00
 20
24050.00
  0
SEQEND
  8
SHEET
  0
POLYLINE
  8
SHEET
 66
     1
 10
0.00
 20
0.00
 40
0.00
 41
0.00
  0
VERTEX
  8
SHEET
 10
16050.00
 20
22000.00
 40
0.00
 41
0.00
  0
VERTEX
  8
SHEET
 10
16050.00
 20
24050.00
 40
0.00
 41
0.00
  0
VERTEX
  8
SHEET
 10
16050.00
 20
24050.00
  0
SEQEND
  8
SHEET
  0
POLYLINE
  8
SHEET
 66
     1
 10
0.00
 20
0.00
 40
0.00
 41
0.00
  0
VERTEX
  8
SHEET
 10
16050.00
 20
22000.00
 40
0.00
 41
0.00
  0
VERTEX
  8
SHEET
 10
16300.00
 20
22000.00
 40
0.00
 41
0.00
  0
VERTEX
  8
SHEET
 10
16300.00
 20
22000.00
  0
SEQEND
  8
SHEET
  0
POLYLINE
  8
SHEET
 66
     1
 10
0.00
 20
0.00
 40
0.00
 41
0.00
  0
VERTEX
  8
SHEET
 10
16300.00
 20
22000.00
 40
0.00
 41
0.00
  0
VERTEX
  8
SHEET
 10
16350.00
 20
22000.00
 40
0.00
 41
0.00
  0
VERTEX
  8
SHEET
 10
16350.00
 20
22000.00
  0
SEQEND
  8
SHEET
  0
POLYLINE
  8
SHEET
 66
     1
 10
0.00
 20
0.00
 40
0.00
 41
0.00
  0
VERTEX
  8
SHEET
 10
16300.00
 20
22000.00
 40
0.00
 41
0.00
  0
VERTEX
  8
SHEET
 10
16300.00
 20
21400.00
  0
VERTEX
  8
SHEET
 10
16300.00
 20
21400.00
 40
0.00
 41
0.00
  0
VERTEX
  8
SHEET
 10
16350.00
 20
21400.00
 40
0.00
 41
0.00
  0
VERTEX
  8
SHEET
 10
16350.00
 20
21400.00
  0
SEQEND
  8
SHEET
  0
POLYLINE
  8
SHEET
 66
     1
 10
0.00
 20
0.00
 40
0.00
 41
0.00
  0
VERTEX
  8
SHEET
 10
21450.00
 20
19450.00
 40
0.00
 41
0.00
  0
VERTEX
  8
SHEET
 10
21800.00
 20
19450.00
  0
VERTEX
  8
SHEET
 10
21800.00
 20
19450.00
 40
0.00
 41
0.00
  0
VERTEX
  8
SHEET
 10
21800.00
 20
19950.00
  0
VERTEX
  8
SHEET
 10
21800.00
 20
19950.00
 40
0.00
 41
0.00
  0
VERTEX
  8
SHEET
 10
21400.00
 20
19950.00
  0
VERTEX
  8
SHEET
 10
21400.00
 20
19950.00
 40
0.00
 41
0.00
  0
VERTEX
  8
SHEET
 10
21400.00
 20
20250.00
 40
0.00
 41
0.00
  0
VERTEX
  8
SHEET
 10
21400.00
 20
20250.00
  0
SEQEND
  8
SHEET
  0
POLYLINE
  8
SHEET
 66
     1
 10
0.00
 20
0.00
 40
0.00
 41
0.00
  0
VERTEX
  8
SHEET
 10
21350.00
 20
21050.00
 40
0.00
 41
0.00
  0
VERTEX
  8
SHEET
 10
21350.00
 20
20250.00
  0
VERTEX
  8
SHEET
 10
21350.00
 20
20250.00
 40
0.00
 41
0.00
  0
VERTEX
  8
SHEET
 10
21400.00
 20
20250.00
 40
0.00
 41
0.00
  0
VERTEX
  8
SHEET
 10
21400.00
 20
20250.00
  0
SEQEND
  8
SHEET
  0
POLYLINE
  8
SHEET
 66
     1
 10
0.00
 20
0.00
 40
0.00
 41
0.00
  0
VERTEX
  8
SHEET
 10
21800.00
 20
20050.00
 40
0.00
 41
0.00
  0
VERTEX
  8
SHEET
 10
22000.00
 20
20050.00
  0
VERTEX
  8
SHEET
 10
22000.00
 20
20050.00
 40
0.00
 41
0.00
  0
VERTEX
  8
SHEET
 10
22000.00
 20
20250.00
 40
0.00
 41
0.00
  0
VERTEX
  8
SHEET
 10
22000.00
 20
20250.00
  0
SEQEND
  8
SHEET
  0
POLYLINE
  8
SHEET
 66
     1
 10
0.00
 20
0.00
 40
0.00
 41
0.00
  0
VERTEX
  8
SHEET
 10
21750.00
 20
20850.00
 40
0.00
 41
0.00
  0
VERTEX
  8
SHEET
 10
21900.00
 20
20850.00
  0
VERTEX
  8
SHEET
 10
21900.00
 20
20850.00
 40
0.00
 41
0.00
  0
VERTEX
  8
SHEET
 10
21900.00
 20
21250.00
 40
0.00
 41
0.00
  0
VERTEX
  8
SHEET
 10
21900.00
 20
21250.00
  0
SEQEND
  8
SHEET
  0
POLYLINE
  8
SHEET
 66
     1
 10
0.00
 20
0.00
 40
0.00
 41
0.00
  0
VERTEX
  8
SHEET
 10
16750.00
 20
21800.00
 40
0.00
 41
0.00
  0
VERTEX
  8
SHEET
 10
17850.00
 20
21800.00
 40
0.00
 41
0.00
  0
VERTEX
  8
SHEET
 10
17850.00
 20
21800.00
  0
SEQEND
  8
SHEET
  0
POLYLINE
  8
SHEET
 66
     1
 10
0.00
 20
0.00
 40
0.00
 41
0.00
  0
VERTEX
  8
SHEET
 10
16750.00
 20
21200.00
 40
0.00
 41
0.00
  0
VERTEX
  8
SHEET
 10
16750.00
 20
21100.00
  0
VERTEX
  8
SHEET
 10
16750.00
 20
21100.00
 40
0.00
 41
0.00
  0
VERTEX
  8
SHEET
 10
16450.00
 20
21100.00
  0
VERTEX
  8
SHEET
 10
16450.00
 20
21100.00
 40
0.00
 41
0.00
  0
VERTEX
  8
SHEET
 10
16450.00
 20
20750.00
 40
0.00
 41
0.00
  0
VERTEX
  8
SHEET
 10
16450.00
 20
20750.00
  0
SEQEND
  8
SHEET
  0
POLYLINE
  8
SHEET
 66
     1
 10
0.00
 20
0.00
 40
0.00
 41
0.00
  0
VERTEX
  8
SHEET
 10
16850.00
 20
20750.00
 40
0.00
 41
0.00
  0
VERTEX
  8
SHEET
 10
17050.00
 20
20750.00
  0
VERTEX
  8
SHEET
 10
17050.00
 20
20750.00
 40
0.00
 41
0.00
  0
VERTEX
  8
SHEET
 10
17050.00
 20
20900.00
 40
0.00
 41
0.00
  0
VERTEX
  8
SHEET
 10
17050.00
 20
20900.00
  0
SEQEND
  8
SHEET
  0
POLYLINE
  8
SHEET
 66
     1
 10
0.00
 20
0.00
 40
0.00
 41
0.00
  0
VERTEX
  8
SHEET
 10
20550.00
 20
25150.00
 40
0.00
 41
0.00
  0
VERTEX
  8
SHEET
 10
20550.00
 20
25000.00
 40
0.00
 41
0.00
  0
VERTEX
  8
SHEET
 10
20550.00
 20
25000.00
  0
SEQEND
  8
SHEET
  0
POLYLINE
  8
SHEET
 66
     1
 10
0.00
 20
0.00
 40
0.00
 41
0.00
  0
VERTEX
  8
SHEET
 10
20600.00
 20
23050.00
 40
0.00
 41
0.00
  0
VERTEX
  8
SHEET
 10
20700.00
 20
23050.00
 40
0.00
 41
0.00
  0
VERTEX
  8
SHEET
 10
20700.00
 20
23050.00
  0
SEQEND
  8
SHEET
  0
POLYLINE
  8
SHEET
 66
     1
 10
0.00
 20
0.00
 40
0.00
 41
0.00
  0
VERTEX
  8
SHEET
 10
20950.00
 20
23050.00
 40
0.00
 41
0.00
  0
VERTEX
  8
SHEET
 10
20700.00
 20
23050.00
 40
0.00
 41
0.00
  0
VERTEX
  8
SHEET
 10
20700.00
 20
23050.00
  0
SEQEND
  8
SHEET
  0
INSERT
  8
SHEET
  2
__JUNCTIONS__
 10
20050.00
 20
23750.00
  0
INSERT
  8
SHEET
  2
__JUNCTIONS__
 10
20600.00
 20
23350.00
  0
POLYLINE
  8
SHEET
 66
     1
 10
0.00
 20
0.00
 40
0.00
 41
0.00
  0
VERTEX
  8
SHEET
 10
20600.00
 20
23300.00
 40
0.00
 41
0.00
  0
VERTEX
  8
SHEET
 10
20600.00
 20
23350.00
 40
0.00
 41
0.00
  0
VERTEX
  8
SHEET
 10
20600.00
 20
23350.00
  0
SEQEND
  8
SHEET
  0
POLYLINE
  8
SHEET
 66
     1
 10
0.00
 20
0.00
 40
0.00
 41
0.00
  0
VERTEX
  8
SHEET
 10
19650.00
 20
23300.00
 40
0.00
 41
0.00
  0
VERTEX
  8
SHEET
 10
19650.00
 20
23500.00
  0
VERTEX
  8
SHEET
 10
19650.00
 20
23500.00
 40
0.00
 41
0.00
  0
VERTEX
  8
SHEET
 10
19800.00
 20
23500.00
  0
VERTEX
  8
SHEET
 10
19800.00
 20
23500.00
 40
0.00
 41
0.00
  0
VERTEX
  8
SHEET
 10
19800.00
 20
23750.00
 40
0.00
 41
0.00
  0
VERTEX
  8
SHEET
 10
19800.00
 20
23750.00
  0
SEQEND
  8
SHEET
  0
POLYLINE
  8
SHEET
 66
     1
 10
0.00
 20
0.00
 40
0.00
 41
0.00
  0
VERTEX
  8
SHEET
 10
19800.00
 20
23750.00
 40
0.00
 41
0.00
  0
VERTEX
  8
SHEET
 10
20050.00
 20
23750.00
 40
0.00
 41
0.00
  0
VERTEX
  8
SHEET
 10
20050.00
 20
23750.00
  0
SEQEND
  8
SHEET
  0
POLYLINE
  8
SHEET
 66
     1
 10
0.00
 20
0.00
 40
0.00
 41
0.00
  0
VERTEX
  8
SHEET
 10
20050.00
 20
23750.00
 40
0.00
 41
0.00
  0
VERTEX
  8
SHEET
 10
19900.00
 20
23750.00
  0
VERTEX
  8
SHEET
 10
19900.00
 20
23750.00
 40
0.00
 41
0.00
  0
VERTEX
  8
SHEET
 10
19900.00
 20
23700.00
 40
0.00
 41
0.00
  0
VERTEX
  8
SHEET
 10
19900.00
 20
23700.00
  0
SEQEND
  8
SHEET
  0
POLYLINE
  8
SHEET
 66
     1
 10
0.00
 20
0.00
 40
0.00
 41
0.00
  0
VERTEX
  8
SHEET
 10
20050.00
 20
23750.00
 40
0.00
 41
0.00
  0
VERTEX
  8
SHEET
 10
20600.00
 20
23750.00
  0
VERTEX
  8
SHEET
 10
20600.00
 20
23750.00
 40
0.00
 41
0.00
  0
VERTEX
  8
SHEET
 10
20600.00
 20
23350.00
 40
0.00
 41
0.00
  0
VERTEX
  8
SHEET
 10
20600.00
 20
23350.00
  0
SEQEND
  8
SHEET
  0
POLYLINE
  8
SHEET
 66
     1
 10
0.00
 20
0.00
 40
0.00
 41
0.00
  0
VERTEX
  8
SHEET
 10
20600.00
 20
23350.00
 40
0.00
 41
0.00
  0
VERTEX
  8
SHEET
 10
20800.00
 20
23350.00
  0
VERTEX
  8
SHEET
 10
20800.00
 20
23350.00
 40
0.00
 41
0.00
  0
VERTEX
  8
SHEET
 10
20800.00
 20
22500.00
  0
VERTEX
  8
SHEET
 10
20800.00
 20
22500.00
 40
0.00
 41
0.00
  0
VERTEX
  8
SHEET
 10
25450.00
 20
22500.00
  0
VERTEX
  8
SHEET
 10
25450.00
 20
22500.00
 40
0.00
 41
0.00
  0
VERTEX
  8
SHEET
 10
25450.00
 20
20900.00
 40
0.00
 41
0.00
  0
VERTEX
  8
SHEET
 10
25450.00
 20
20900.00
  0
SEQEND
  8
SHEET
  0
INSERT
  8
SHEET
  2
__JUNCTIONS__
 10
20250.00
 20
23850.00
  0
POLYLINE
  8
SHEET
 66
     1
 10
0.00
 20
0.00
 40
0.00
 41
0.00
  0
VERTEX
  8
SHEET
 10
26000.00
 20
20950.00
 40
0.00
 41
0.00
  0
VERTEX
  8
SHEET
 10
26000.00
 20
22400.00
  0
VERTEX
  8
SHEET
 10
26000.00
 20
22400.00
 40
0.00
 41
0.00
  0
VERTEX
  8
SHEET
 10
21100.00
 20
22400.00
  0
VERTEX
  8
SHEET
 10
21100.00
 20
22400.00
 40
0.00
 41
0.00
  0
VERTEX
  8
SHEET
 10
21100.00
 20
23300.00
  0
VERTEX
  8
SHEET
 10
21100.00
 20
23300.00
 40
0.00
 41
0.00
  0
VERTEX
  8
SHEET
 10
20950.00
 20
23300.00
 40
0.00
 41
0.00
  0
VERTEX
  8
SHEET
 10
20950.00
 20
23300.00
  0
SEQEND
  8
SHEET
  0
POLYLINE
  8
SHEET
 66
     1
 10
0.00
 20
0.00
 40
0.00
 41
0.00
  0
VERTEX
  8
SHEET
 10
20250.00
 20
23300.00
 40
0.00
 41
0.00
  0
VERTEX
  8
SHEET
 10
20250.00
 20
23850.00
 40
0.00
 41
0.00
  0
VERTEX
  8
SHEET
 10
20250.00
 20
23850.00
  0
SEQEND
  8
SHEET
  0
POLYLINE
  8
SHEET
 66
     1
 10
0.00
 20
0.00
 40
0.00
 41
0.00
  0
VERTEX
  8
SHEET
 10
20250.00
 20
23850.00
 40
0.00
 41
0.00
  0
VERTEX
  8
SHEET
 10
20250.00
 20
24000.00
  0
VERTEX
  8
SHEET
 10
20250.00
 20
24000.00
 40
0.00
 41
0.00
  0
VERTEX
  8
SHEET
 10
19800.00
 20
24000.00
 40
0.00
 41
0.00
  0
VERTEX
  8
SHEET
 10
19800.00
 20
24000.00
  0
SEQEND
  8
SHEET
  0
POLYLINE
  8
SHEET
 66
     1
 10
0.00
 20
0.00
 40
0.00
 41
0.00
  0
VERTEX
  8
SHEET
 10
20250.00
 20
23850.00
 40
0.00
 41
0.00
  0
VERTEX
  8
SHEET
 10
20950.00
 20
23850.00
  0
VERTEX
  8
SHEET
 10
20950.00
 20
23850.00
 40
0.00
 41
0.00
  0
VERTEX
  8
SHEET
 10
20950.00
 20
23300.00
 40
0.00
 41
0.00
  0
VERTEX
  8
SHEET
 10
20950.00
 20
23300.00
  0
SEQEND
  8
SHEET
  0
POLYLINE
  8
SHEET
 66
     1
 10
0.00
 20
0.00
 40
0.00
 41
0.00
  0
VERTEX
  8
SHEET
 10
19300.00
 20
23750.00
 40
0.00
 41
0.00
  0
VERTEX
  8
SHEET
 10
19450.00
 20
23750.00
 40
0.00
 41
0.00
  0
VERTEX
  8
SHEET
 10
19450.00
 20
23750.00
  0
SEQEND
  8
SHEET
  0
POLYLINE
  8
SHEET
 66
     1
 10
0.00
 20
0.00
 40
0.00
 41
0.00
  0
VERTEX
  8
SHEET
 10
19450.00
 20
24000.00
 40
0.00
 41
0.00
  0
VERTEX
  8
SHEET
 10
19450.00
 20
23750.00
 40
0.00
 41
0.00
  0
VERTEX
  8
SHEET
 10
19450.00
 20
23750.00
  0
SEQEND
  8
SHEET
  0
ENDSEC
  0
EOF
